Days Of The New - Touch Peel And Stand Chords & Tabs

 

Days Of The New Chords & Tabs

Version: 1 Type: Tab 0 ratings
1 star 2 stars 3 stars 4 stars 5 stars
comments

Touch Peel And Stand Tab

This is EXACTLY Right. Enjoy! -by Jordan

     
                    Touch, Peel And Stand                               


                        Days Of The New
Guitar 1



                                                                              
E||------------------------|------------------------|------------------------|
B||------------------------|------------------------|------------------------|
G||--5/-7--7----7----7--5/-|--7--7--7----7----7--x--|------------------------|
D||--5/-7--7----7----7--5/-|--7--7--7----7----7--x--|--3/-5--5----5----5--3/-|
A||--3/-5--5----5----5--3/-|--5--5--5----5----5--x--|--3/-5--5----5----5--3/-|
D||------------------------|------------------x--x--|--3/-5--5----5----5--3/-|


                                                                         
------------------------|-----------------------|-----------------------|
------------------------|-----------------------|-----------------------|
------------------------|-----------------------|-----------------------|
--5--5--5----5----x--0--|--3----3----3----0--3--|----3--3----3----3--x--|
--5--5--5----5----x--0--|--3----3----3----0--3--|----3--3----3----3--x--|
--5--5--5----5----x--0--|--3----3----3----0--3--|----3--3----3----3--x--|


                                                                           
-------------------------|-----------------------|------------------------|
-------------------------|-----------------------|------------------------|
-------------------------|-----------------------|--5/-7--7----7----7--5/-|
--3/-5--5--5--3--0--0----|----0--0----5--3--0----|--5/-7--7----7----7--5/-|
--3/-5--5--5--3--0--0----|----0--0----5--3--0----|--3/-5--5----5----5--3/-|
--3/-5--5--5--3--0--0----|----0--0----5--3--0----|------------------------|


                                                                           
------------------------|------------------------|------------------------|
------------------------|------------------------|------------------------|
--7--7--7----7----7--x--|------------------------|------------------------|
--7--7--7----7----7--x--|--3/-5--5----5----5--3/-|--5--5--5----5----x--0--|
--5--5--5----5----5--x--|--3/-5--5----5----5--3/-|--5--5--5----5----x--0--|
------------------x--x--|--3/-5--5----5----5--3/-|--5--5--5----5----x--0--|


                                                                          
-----------------------|-----------------------|-------------------------|
-----------------------|-----------------------|-------------------------|
-----------------------|-----------------------|-------------------------|
--3----3----3----0--3--|----3--3----3----3--x--|--3/-5--5--5--3--0--0----|
--3----3----3----0--3--|----3--3----3----3--x--|--3/-5--5--5--3--0--0----|
--3----3----3----0--3--|----3--3----3----3--x--|--3/-5--5--5--3--0--0----|


                                                                              
-----------------------||--------------------------|------------------------||
-----------------------||--------------------------|------------------------||
-----------------------||*--4/-5--5--5-------------|-----------------------*||
----0--0----5--3--0----||*--4/-5--5--5--5--3--0----|----0--0----5--3--0----*||
----0--0----5--3--0----||---2/-3--3--3--5--3--0----|----0--0----5--3--0-----||
----0--0----5--3--0----||---------------5--3--0----|----0--0----5--3--0-----||


                                                                   
--------------------|--------------------|------------------------|
--------------------|--------------------|------------------------|
-----------x--------|--x--------x--------|------------------------|
--0--------x--------|--x--------x--------|------------------------|
--0--------x--------|--x--------x--------|------------------------|
--0--------x--------|--x--------x--------|--3--5--3--0--3r---0----|


                                                                        
------------------------|----------------------|-----------------------|
------------------------|----------------------|-----------------------|
------------------------|----------------------|-----------------------|
------------------------|----------------------|-----------------------|
------------------------|----------------------|----------3----3----3--|
--x--x--x--3----5----5b-|------5----0----x--x--|--x--x-----------------|


                                                                             
---------------------|------------------------|-----------------------------|
---------------------|------------------------|-----------------------------|
---------------------|------------------------|-----------------------------|
---------------------|------------------------|--6--------5--------3--------|
------3----3----5----|------------------------|--6--------5--------3--------|
---------------------|--x--x--x--x--3--5------|--6--------5--------3--------|


                                                                          
------------------------|-----------------------|------------------------|
------------------------|-----------------------|------------------------|
------------------------|-----------------------|------------------------|
--x--x--x--3----5----0--|----0--3----0----x--x--|--x--x--x--3----5----6--|
--x--x--x--3----5----0--|----0--3----0----x--x--|--x--x--x--3----5----6--|
--x--x--x--3----5----0--|----0--3----0----x--x--|--x--x--x--3----5----6--|


                                                                        
-----------------------|-------------------------|---------------------|
-----------------------|-------------------------|---------------------|
-----------------------|-------------------------|---------------------|
------5--3--5--0----x--|--x---x--x--5----5----5--|------5----5----7----|
------5--3--5--0----x--|--x---x--x--3----3----3--|------3----3----5----|
------5--3--5--0----x--|--x---x--x---------------|---------------------|


                                                                          
------------------------|-----------------------------|------------------|
------------------------|-----------------------------|------------------|
------------------------|-----------------------------|------------------|
--x--x--x--x--3--5------|--6--------5--------3--------|------------------|
--x--x--x--x--3--5------|--6--------5--------3--------|------------------|
--x--x--x--x--3--5------|--6--------5--------3--------|------------------|


                                                                             
|-------------------------|------------------------|------------------------|
|-------------------------|------------------------|------------------------|
|*--5/-7--7----7----7--5/-|--7--7--7----7----7--x--|------------------------|
|*--5/-7--7----7----7--5/-|--7--7--7----7----7--x--|--3/-5--5----5----5--3/-|
|---3/-5--5----5----5--3/-|--5--5--5----5----5--x--|--3/-5--5----5----5--3/-|
|-------------------------|------------------x--x--|--3/-5--5----5----5--3/-|


                                                                         
------------------------|-----------------------|-----------------------|
------------------------|-----------------------|-----------------------|
------------------------|-----------------------|-----------------------|
--5--5--5----5----x--0--|--3----3----3----0--3--|----3--3----3----3--x--|
--5--5--5----5----x--0--|--3----3----3----0--3--|----3--3----3----3--x--|
--5--5--5----5----x--0--|--3----3----3----0--3--|----3--3----3----3--x--|


                                                                              
-------------------------|------------------------||-------------------------|
-------------------------|------------------------||-------------------------|
-------------------------|-----------------------*||--4/-5--5--5-------------|
--3/-5--5--5--3--0--0----|----0--0----5--3--0----*||--4/-5--5--5--5--3--0----|
--3/-5--5--5--3--0--0----|----0--0----5--3--0-----||--2/-3--3--3--5--3--0----|
--3/-5--5--5--3--0--0----|----0--0----5--3--0-----||--------------5--3--0----|


                                                                  
-----------------------|--------------------|--------------------|
-----------------------|--------------------|--------------------|
-----------------------|--------------------|--------------------|
----0--0----5--3--0----|--0--------x--------|--x--------x--------|
----0--0----5--3--0----|--0--------x--------|--x--------x--------|
----0--0----5--3--0----|--0--------x--------|--x--------x--------|


                                                                         
------------------------|------------------------|----------------------|
------------------------|------------------------|----------------------|
------------------------|------------------------|----------------------|
------------------------|------------------------|----------------------|
------------------------|------------------------|----------------------|
--3--5--3--0--3r---0----|--x--x--x--3----5----5b-|------5----0----x--x--|


                                                                       
-----------------------|---------------------|------------------------|
-----------------------|---------------------|------------------------|
-----------------------|---------------------|------------------------|
-----------------------|---------------------|------------------------|
----------3----3----3--|------3----3----5----|------------------------|
--x--x-----------------|---------------------|--x--x--x--x--3--5------|


                                                                          
-----------------------------|------------------|------------------------|
-----------------------------|------------------|------------------------|
-----------------------------|------------------|--5/-7--7----7----7--5/-|
--6--------5--------3--------|------------------|--5/-7--7----7----7--5/-|
--6--------5--------3--------|------------------|--3/-5--5----5----5--3/-|
--6--------5--------3--------|------------------|------------------------|


                                                                           
------------------------|------------------------|------------------------|
------------------------|------------------------|------------------------|
--7--7--7----7----7--x--|------------------------|------------------------|
--7--7--7----7----7--x--|--3/-5--5----5----5--3/-|--5--5--5----5----x--0--|
--5--5--5----5----5--x--|--3/-5--5----5----5--3/-|--5--5--5----5----x--0--|
------------------x--x--|--3/-5--5----5----5--3/-|--5--5--5----5----x--0--|


                                                                          
-----------------------|-----------------------|-------------------------|
-----------------------|-----------------------|-------------------------|
-----------------------|-----------------------|-------------------------|
--3----3----3----0--3--|----3--3----3----3--x--|--3/-5--5--5--3--0--0----|
--3----3----3----0--3--|----3--3----3----3--x--|--3/-5--5--5--3--0--0----|
--3----3----3----0--3--|----3--3----3----3--x--|--3/-5--5--5--3--0--0----|


                                                                          
-----------------------|-------------------------|-----------------------|
-----------------------|-------------------------|-----------------------|
-----------------------|--4/-5--5--5-------------|-----------------------|
----0--0----5--3--0----|--4/-5--5--5--5--3--0----|----0--0----5--3--0----|
----0--0----5--3--0----|--2/-3--3--3--5--3--0----|----0--0----5--3--0----|
----0--0----5--3--0----|--------------5--3--0----|----0--0----5--3--0----|


                                                                    
--------------------|--------------------||------------------------|
--------------------|--------------------||------------------------|
--------------------|--------------------||*-----------------------|
--0--------x--------|--x--------x--------||*--3h---5----5--3--0----|
--0--------x--------|--x--------x--------||---3h---5----5--3--0----|
--0--------x--------|--x--------x--------||---3h---5----5--3--0----|

[ Tab from: http://www.guitartabs.cc/tabs/d/days_of_the_new/touch_peel_and_stand_tab.html ]
                                                                           3x
------------------------|------------------------|-------------------------||
------------------------|------------------------|-------------------------||
------------------------|------------------------|------------------------*||
----0--3--5--5--3--0----|--5--6--5----5--3--0----|----0--3--5--5--3--0----*||
----0--3--5--5--3--0----|--5--6--5----5--3--0----|----0--3--5--5--3--0-----||
----0--3--5--5--3--0----|--5--6--5----5--3--0----|----0--3--5--5--3--0-----||


                                                                          
-----------------------|------------------------|------------------------|
-----------------------|------------------------|------------------------|
-----------------------|------------------------|------------------------|
--3h---5----5--3--0----|----0--3--5--5--3--0----|--5--6--5----5--3--0----|
--3h---5----5--3--0----|----0--3--5--5--3--0----|--5--6--5----5--3--0----|
--3h---5----5--3--0----|----0--3--5--5--3--0----|--5--6--5----5--3--0----|


                                                          
------------------------|--------------------------------|
------------------------|------10--------------10--------|
------------------------|------10--x---x---x---10--------|
----0--3--5--x--x--x----|--12------12--10--12------12----|
----0--3--5--x--x--x----|--------------------------------|
----0--3--5--x--x--x----|--------------------------------|


                                                                                
---------------------------|--------------------------|------------------------|
--x--x--x--10----12----12b-|------12--10--12--10------|------13----15----15----|
--x--x--x--10----12----12b-|------12--10--12--10------|------12----14----14----|
---------------------------|--------------------------|------------------------|
---------------------------|--------------------------|------------------------|
---------------------------|--------------------------|------------------------|


                                                                               
--------------------------|----------------------------|----------------------|
----13--10--12--10--------|------------10--12------12b-|------12------10------|
----12--10--12--10--------|------------10--12------12b-|------12------10------|
--------------------------|----12--12------------------|----------------------|
--------------------------|----------------------------|----------------------|
--------------------------|----------------------------|----------------------|


                                                                      
------------------|--13--10------13------10--15--10------13------10--|
------------------|----------13------13--------------13------13------|
------------------|--------------------------------------------------|
------------------|--------------------------------------------------|
------------------|--------------------------------------------------|
------------------|--------------------------------------------------|


                                                   
--------------------------------------------------|
--13--10------13------10--15--10------13------10--|
----------13------13--------------13------13------|
--------------------------------------------------|
--------------------------------------------------|
--------------------------------------------------|


                                                   
--------------------------------------------------|
--------------------------------------------------|
--12--10--12------12--10--13--12--10--------------|
--------------12----------------------12--10------|
----------------------------------------------12--|
--------------------------------------------------|


                                                          
-------------------------------|-------------------------|
-------------------------------|-------------------------|
-------------------5--7--5-----|--7--5-------------------|
-------------5--7-----------7--|--------7--------6b---x--|
--11--10--8--------------------|-----------5--5-------x--|
-------------------------------|-------------------------|


                                                        
----------------------------|--------------------------|
----------------------------|-----------------8--------|
--5/-7--7/-5--7/-10--10/-7--|--5--7--5--7--------------|
----------------------------|--------------5-----5/-7--|
--3/-5--5/-3--5/-8---8/--5--|--3/-5--3/-5--------------|
----------------------------|--------------------------|


                                                                     
---------------------------------|----------------------------------|
--10---------13----------15------|--12--12--12--10--10--10----------|
---------------------------------|--12--12--12--10--10--10--12--12--|
------7/-10------10/-12------12/-|--------------------------12--12--|
---------------------------------|----------------------------------|
---------------------------------|----------------------------------|


                                                                      
----------------------------------|----------------------------------|
--------------------------10--10--|--12--12--12--10--10--10----------|
--12--10--10--10--12--12--10--10--|--12--12--12--10--10--10--12--12--|
--12--10--10--10--12--12----------|--------------------------12--12--|
----------------------------------|----------------------------------|
----------------------------------|----------------------------------|


                                                                      
----------------------------------|----------------------------------|
--------------------------10--10--|--12--12--12--10--10--10----------|
--12--10--10--10--12--12--10--10--|--12--12--12--10--10--10--12--12--|
--12--10--10--10--12--12----------|--------------------------12--12--|
----------------------------------|----------------------------------|
----------------------------------|----------------------------------|


                                                                    
--------------------------------|------10--10------10--10------10--|
------10--10--10----------------|--13b---------13b---------13b-----|
--12--10--10--10--12--12--10----|----------------------------------|
--12--------------12--12--10----|----------------------------------|
--------------------------------|----------------------------------|
--------------------------------|----------------------------------|


                                                                        
--10------10--10------10--10----|-------------------|------------------|
------13b---------13b-----------|-------------------|------------------|
--------------------------------|----7--------------|------------------|
--------------------------------|----7--------------|------------------|
--------------------------------|----5--------------|------------------|
--------------------------------|-------------------|------------------|


                                                                                
-------------------|------------------|--------------------|-------------------|
-------------------|------------------|--------------------|-------------------|
-------------------|------------------|--------------------|-------------------|
----5--------------|------------------|--------------0--3--|----------------x--|
----5--------------|------------------|--------------0--3--|----------------x--|
----5--------------|------------------|--------------0--3--|----------------x--|


                                                             
-------------------|---------------------|------------------|
-------------------|---------------------|------------------|
-------------------|---------------------|------------------|
----5--------------|----------5--3--0----|------------------|
----5--------------|----------5--3--0----|------------------|
----5--------------|----------5--3--0----|------------------|


                                                                             
|-------------------------|------------------------|------------------------|
|-------------------------|------------------------|------------------------|
|*--5/-7--7----7----7--5/-|--7--7--7----7----7--x--|------------------------|
|*--5/-7--7----7----7--5/-|--7--7--7----7----7--x--|--3/-5--5----5----5--3/-|
|---3/-5--5----5----5--3/-|--5--5--5----5----5--x--|--3/-5--5----5----5--3/-|
|-------------------------|------------------x--x--|--3/-5--5----5----5--3/-|


                                                                         
------------------------|-----------------------|-----------------------|
------------------------|-----------------------|-----------------------|
------------------------|-----------------------|-----------------------|
--5--5--5----5----x--0--|--3----3----3----0--3--|----3--3----3----3--x--|
--5--5--5----5----x--0--|--3----3----3----0--3--|----3--3----3----3--x--|
--5--5--5----5----x--0--|--3----3----3----0--3--|----3--3----3----3--x--|


                                                  3x                     
-------------------------|------------------------||--------------------|
-------------------------|------------------------||--------------------|
-------------------------|-----------------------*||--------------------|
--3/-5--5--5--3--0--0----|----0--0----5--3--0----*||--0--------x--------|
--3/-5--5--5--3--0--0----|----0--0----5--3--0-----||--0--------x--------|
--3/-5--5--5--3--0--0----|----0--0----5--3--0-----||--0--------x--------|


                                                                        
--------------------||------------------------|------------------------|
--------------------||------------------------|------------------------|
--------------------||*-----------------------|------------------------|
--x--------x--------||*--3h---5----5--3--0----|----0--3--5--5--3--0----|
--x--------x--------||---3h---5----5--3--0----|----0--3--5--5--3--0----|
--x--------x--------||---3h---5----5--3--0----|----0--3--5--5--3--0----|


                                                                           
------------------------|------------------------|------------------------|
------------------------|------------------------|------------------------|
------------------------|------------------------|------------------------|
--5--6--5----5--3--0----|----0--3--5--5--3--0----|--3h-5--5----5--3--0----|
--5--6--5----5--3--0----|----0--3--5--5--3--0----|--3h-5--5----5--3--0----|
--5--6--5----5--3--0----|----0--3--5--5--3--0----|--3h-5--5----5--3--0----|


                                                                             
------------------------|------------------------|-------------------------||
------------------------|------------------------|-------------------------||
------------------------|------------------------|------------------------*||
----0--3--5--5--3--0----|--5--6--5----5--3--0----|----0--3--5--5--3--0----*||
----0--3--5--5--3--0----|--5--6--5----5--3--0----|----0--3--5--5--3--0-----||
----0--3--5--5--3--0----|--5--6--5----5--3--0----|----0--3--5--5--3--0-----||


                                                                          
-----------------------|------------------------|------------------------|
-----------------------|------------------------|------------------------|
-----------------------|------------------------|------------------------|
--3h---5----5--3--0----|----0--3--5--5--3--0----|--5--6--5----5--3--0----|
--3h---5----5--3--0----|----0--3--5--5--3--0----|--5--6--5----5--3--0----|
--3h---5----5--3--0----|----0--3--5--5--3--0----|--5--6--5----5--3--0----|


                                                                          
------------------------|-----------------------|------------------------|
------------------------|-----------------------|------------------------|
------------------------|-----------------------|------------------------|
----0--3--5--5--3--0----|--3h---5----5--3--0----|----0--3--5--5--3--0----|
----0--3--5--5--3--0----|--3h---5----5--3--0----|----0--3--5--5--3--0----|
----0--3--5--5--3--0----|--3h---5----5--3--0----|----0--3--5--5--3--0----|


                                                  
------------------------|------------------------|
------------------------|------------------------|
------------------------|------------------------|
--5--6--5----5--3--0----|----0--3--5--5--3--0----|
--5--6--5----5--3--0----|----0--3--5--5--3--0----|
--5--6--5----5--3--0----|----0--3--5--5--3--0----|


                               
-----------------------------||
-----------------------------||
-----------------------------||
--------------3--4~----------||
--------3--5-----------------||
--0--3--------------0--------||


Comments