Days Of The New - The Down Town Chords & Tabs

 

The Down Town Chords & Tabs

Days Of The New Chords & Tabs

Version: 2 Type: Bass Tab 0 ratings
1 star 2 stars 3 stars 4 stars 5 stars
comments

The Down Town Bass Tab

   
  BTAB: The Down Town   
Artist: Days of the New
 Album: Days of the New
Author: Rattman (jratt0@hotmail.com)

**Padrino's Bass Tab Exclusive!**

Drop D Tuning.

Intro Riff (intro is just guitar, this is played whenever that riff is 
 played later):
G---------------------------
D---------------------------
A---------------------------
D-6-1-4-6-1-4-2-2-2-2-4-4-4-
[ Tab from: http://www.guitartabs.cc/tabs/d/days_of_the_new/the_down_town_btab_ver_2.html ]
Verse:
G-----------------------------
D-----------------------------
A-----------------------------
D-6--4-4--6-6--4-4--2-2-2-2-2-

Chorus:
"bring me..."
G--------------------
D--------------------
A--------------------
D-6-6--4-4--1-1-1-1--

"dooooowwwn...."
G-----------------
D-----------------
A-----------------
D-2--2--2--2---2--

Bridge:
"I don't feel..."
G-------
D-------
A-------
D-3~-2~-
^When it speeds up you pick each note longer, let in ring in the slow parts.



Taken from Padrino's Bass Tab Archive: http://members.xoom.com/jszalma/
Comments