Days Of The New - Now Chords & Tabs

 

Now Chords & Tabs

Days Of The New Chords & Tabs

Version: 1 Type: Tab 0 ratings
1 star 2 stars 3 stars 4 stars 5 stars
comments

Now Tab

   
-------------------------------------------------------------------------------
			     Now - Days of the New
-------------------------------------------------------------------------------
Tabbed by: ShadowXShred
Email: Alex1017x@yahoo.com

Tuning: Drop down 1/2 step (Eb Ab Db Gb Bb Eb)

This is just a basic overveiw of the song. I've only tabbed out guitar one.
Listen to the song for the Rythem.
Intro/Verses
eb|---------------------------------------------------------------------------|
Bb|---------------------------------------------------------------------------|
Gb|------9------8-------7--------5--------5-----------------------------------|
Db|--------------------------------------------7 5h7--------------------------|
Ab|--0------0------0--------0--------0----------------------------------------|
Eb|---------------------------------------------------------------------------|
        I feel alone even with myself

[ Tab from: http://www.guitartabs.cc/tabs/d/days_of_the_new/now_tab.html ]
  Pre-chorus:   
eb|--3---------------------------0--------------------------------------------|
Bb|--5---------------------------3--------------------------------------------|
Gb|--5---------------------------2--------------------------------------------|
Db|--5---------------------------0--------------------------------------------|
Ab|---------------------------------------------------------------------------|
Eb|---------------------------------------------------------------------------|
    You try to judge me now/tomorrow's okay
  

  Pre-chorus2:
eb|--0------------------------------0--0--0-------0-----------------------------|
Bb|--3------------------------------3--3--3-------3-----------------------------|
Gb|--0------------------------------2--2--2-------0-----------------------------|
Db|--2------------------------------0--0--0-------2-----------------------------|
Ab|--3--------------------------------------------3-----------------------------|
Eb|--0--------------------------------------------0-----------------------------|
     I hate to tell you but you're in my way


  Chorus:
eb|--7--------------0-----------------------------------------------------------|
Bb|--8--------------0-----------------------------------------------------------|
Gb|--7--------------7-----------------------------------------------------------|
Db|--9--------------7-----------------------------------------------------------|
Ab|--7--------------5-----------------------------------------------------------|
Eb|--7--------------5-----------------------------------------------------------|
    Now...... Now now


I hope this gives you the basic idea of the song. I did not want this to be a spoon-feeder tab.
Comments