Days Of The New - Enemy Chords & Tabs

 

Enemy Chords & Tabs

Days Of The New Chords & Tabs

Version: 1 Type: Tab 0 ratings
1 star 2 stars 3 stars 4 stars 5 stars
comments

Enemy Tab

   
Enemy-Days of the New (Travis Meeks)

Tunning low to High:
BF#C#F#AC#

Ok, so here ya go.

          this is the Bass intro, you repeat this numerous times

E |-------------------------------|-------------------------------|
B |-------------------------------|-------------------------------|
G |-------------------------------|-------------------------------|
D |-------------------------------|-------------------------------|
A |---0--------0-----0------------|--0--------0-----0-------------|
E |------2--5-----5---------------|-----2--5-----5----------------|
 
     then the guitar comes in. 

E |-------------------------------|
B |-------------------------------|
G |-------------------------------|
D |-------0------0---------0------|
A |-----0------0------------------|
E |-5^7-----2------5--7--5---5^7--|
    
    and this is the main riff for the verses

E |-------------------------------|-------------------------------|
B |-------------------------------|-------------------------------|
G |---0---------------------------|---0---------------------------|
D |-------------0---------0-------|-------------0---------0-------|
A |-0---------0-------------------|-0---------0-------------------|
E |-----0--2------5--7--5---5^7---|-----0--2------5--7--5---5^7---|
    
    This is the end of the verse

E |--------------------------0----|----------------------------------|
B |------------------------0-2----|-----------------2^4-4-4--2^4-0-0-|
G |---0--------------------0-0----|-----------------0---0-0--0---0-0-|
D |-------------0------------0----|----------------------------------|
A |-0---------0--------------5----|----------------------------------|
E |-----0--2------5--7--5----0----|----------------------------------|

     Here's the Chorus
 (the second half of the second and I think third verse strums the chords
   in the first two measures shown here as well.)

E |-5/7-7-7-7--7-7-5--7--5-5-7----|--7-7-7-7--7-7-5--7--5-5-0----|
B |-0-0-0-0-0--0-0-0--0--0-0-0----|--0-0-0-0--0-0-0--0--0-0-2----|
G |-0-0-0-0-0--0-0-0--0--0-0-0----|--0-0-0-0--0-0-0--0--0-0-0----|
D |-5/7-7-7-7--7-7-5--7--5-5-7----|--7-7-7-7--7-7-5--7--5-5-0----|
A |-------------------------------|-------------------------5----|
E |-5/7-7-7-7--7-7-5--7--5-5-7----|--7-7-7-7--7-7-5--7--5-5------|

E |--0-0--0---0-0-0--0--0-0-0-----|--0-0--0--0-0------------------|
B |--2-2--2---2-2-0--2--0-0-2-----|--2-2--2--2-2-2^4-4-4--2^4-0-0-|
G |--0-0--0---0-0-0--0--0-0-0-----|--0-0--0--0-0-0---0-0--0---0-0-|
D |--0-0--0---0-0-0--0--0-0-0-----|--0-0--0--0-0------------------|
A |--5-5--5---5-5-3--5--3-3-5-----|--5-5--5--5-5------------------|
E |-------------------------------|-------------------------------|
  
  Here is the Breakdown part before it goes soft after the second Chorus

E |-------------------------------|----------------------------------|
B |-------------------------------|----------------------------------|
G |-------------------------------|----------------------------------|
D |-------------------------------|----------------------------------|
A |-3^5-5-5-----------3^5-5-5-----|-3^5-5-5-----------3^5-5-5-0-0-3--|
E |-0---0-0-----------0---0-0-----|-0---0-0-----------0---0-0-0-0-0--|

   Ok heres the soft interlude part

E |---------0-------|------3-----------|---------8-----3-|------3--------1^0-|
B |-----0-----0-----|--0-----0---2^0---|-----0-----0---0-|--0--------2^0-----|
G |-------0-----0---|----0-----0-----0-|---0---0-----0-0-|----0--------------|
D |---0-------------|------------------|---------------0-|-------------------|
A |-0-------------3-|------------------|-5-------------3-|-------------------|
E |-----------------|------------------|---------------3-|--------2----------|

 And after you play that once then you strum the chords.
  These are the chords for the rest of the interlude.
  
  
  I went 
  F#m=x00000
  
  in,  killing the
  A  =x30003
  
  sun, that I once
 F#m9=x5x008
  
  won,
  D  =330003
 
  I once won
  Db =2x0000

     ok so now that you got all that, heres the outro.

E |-------------5--------3--|----------------------|
B |-0-----------------0-----|--0-----0^2----0------|
G |-------2--------0--------|-----0------0----0----|
D |----0-----0--------------|-------------------0--|
A |-0-----------0--------3--|----------------------|
E |-------------------------|----------------------|

E |-------------8-----------|--------3---------1^0-|
B |-------0--------0-----0--|-----0--------2^0-----|
G |----------0--------0-----|--0-------------------|
D |-------------------------|----------------------|
A |----5-----------------3--|----------------------|
E |-0--------------------3--|-----------2----------|
   
   And the Solo,
E |-------------------------------|----------------------------------|
B |-------------------------------|----------------------------------|
G |-------------------------------|--------------------------------3-|
D |-------------------3-5^3---3^5-|----3~~~~~----------------------x-|
A |-----3--5^3-0--3^5-------5-----|--------------------------------x-|
E |-5^7---------------------------|----------------------------------|
[ Tab from: http://www.guitartabs.cc/tabs/d/days_of_the_new/enemy_tab.html ]
E |-------------------------------|----------------------------------|
B |-------------------------------|----------------------------------|
G |-5---3----------------5----5/6-|-5---3----------------------------|
D |-------------------------------|---------5-------3--5-------3-----|
A |-------------------------------|----------------------------------|
E |-------------------------------|----------------------------------|
          bend release
E |------10b(11)r(10)^8-----------|----------------------------------|
B |---------------------9-------7-|-9-7------------------------------|
G |-------------------------------|--------------------------------8-|
D |-------------------------------|------------------------------8---|
A |-------------------------------|----------------------------------|
E |-------------------------------|----------------------------------|

E |-------------------------------|----------------------------------|
B |------0------------------------|----------------------------------|
G |-----------------------------7-|------10----12----------5/6-------|
D |---------------------------7---|----------------------------------|
A |-------------------------------|------------12----------5/6--5--3-|
E |-------------------------------|----------------------------------|
   this part is really tricky
E |-------------------------------|----------------------------------|
B |-------------------------------|------------------------------4-7-|
G |-----0-3^0----0^3^0-----0^3^0-0|-5^6^5^3---5^6^5--3------5^6------|
D |----------0--------0--0------0-|--------5------------5------------|
A |-5^7-------5^7------5----------|----------------------------------|
E |-------------------------------|----------------------------------|

E |-------------------------------|----------------------------------|
B |-7b(9)--5-4-5^4-4--------------|--------------------------------9-|
G |---------------6--6-5-3--5^6^5-|-3---3--------------------0--7----|
D |-------------------------------|---5---5-3^5^3--------------------|
A |-------------------------------|---------------5-3^5^3^0----------|
E |-------------------------------|----------------------------------|

E |-----12----15--15B(17)--12--15-|-15b(17)r(15)-12------------------|
B |-------------------------------|-----------------14-12-14b(16)----|
G |-------------------------------|--------------------------------3-|
D |-------------------------------|-------------------------------5--|
A |-------------------------------|------------------------------6---|
E |-------------------------------|----------------------------------|

E |-------------------------------|----------------------------------|
B |-------------------------------|-9------7------------7----5----4--|
G |-----3---3/5--------3-5\7------|-9------7-----5\7----7----5----3--|
D |---5---------------------------|----------------------------------|
A |-6-----------------------------|----------------------------------|
E |-------------------------------|----------------------------------|
   
    Harm.
E |-------------------------------|-5------7------8-----7----8----10-|
B |-------------------------------|-5-------------------7------------|
G |-------------------------------|-5-------------------7------------|
D |-(7)---------------------------|-5-------------------7------------|
A |-(7)---------------------------|----------------------------------|
E |-------------------------------|----------------------------------|

E |-(12)--------------------------|-5------7------8-----7----8----10-|
B |-(12)--------------------------|-5-------------------7------------|
G |-(12)--------------------------|-5-------------------7------------|
D |-(12)--------------------------|-5-------------------7------------|
A |-------------------------------|----------------------------------|
E |-------------------------------|----------------------------------|

E |-------------------------------|-5------7------8-----7----8----10-|
B |-------------------------------|-5-------------------7------------|
G |-(12)--------------------------|-5-------------------7------------|
D |-(12)--------------------------|-5-------------------7------------|
A |-------------------------------|----------------------------------|
E |-------------------------------|----------------------------------|

E |-12/15----12-------------------|-5------7------8-----7----8----10-|
B |-------------------------------|-5-------------------7------------|
G |-------------------------------|-5-------------------7------------|
D |-------------------------------|-5-------------------7------------|
A |-------------------------------|----------------------------------|
E |-------------------------------|----------------------------------|

E |----------------------------------|--------------------------------------|
B |----------------------------------|--------------------------------------|
G |-17-18^17-15--17-18-17-15---------|-17-18-17-15---17-18-17-15---15-------|
D |------------17-----------17-15-17-|------------17------------17---17-15--|
A |----------------------------------|--------------------------------------|
E |----------------------------------|--------------------------------------|
                                                               then fade out 
E |-----------------------------------|-----17------15-----13-----12-----|
B |-----------------------------------|----------------------------------|
G |-----17-18-17-15---17-18-17-15--15-|-15------14-----12-----10---------|
D |-17-------------17------------17---|----------------------------------|
A |-----------------------------------|----------------------------------|
E |-----------------------------------|----------------------------------|

                                   The End!!!

Well I hope ya understand it all. Questions and comments are welcome.

E-mail me at greenhell@mailcity.com
 thanks a lot and Rock on!!!

~Bob~
Comments