Day Of Fire - To Fly Chords & Tabs

 

To Fly Chords & Tabs

Day Of Fire Chords & Tabs

Version: 1 Type: Tab

To Fly Tab

Band- Day Of Fire
Song- To Fly
[ Tab from: http://www.guitartabs.cc/tabs/d/day_of_fire/to_fly_tab.html ]
intro/verses
-------------------------------------------------------------------------|
-------------------------------------------------------------------------|
----7-7-7-5-7---7-7-7-5-7------7-5-h7p5-5-0------------------------------|
--x-7-7-7-5-7-x-7-7-7-5-7--x-x-7-5------5-0------------------------------|
--x-5-5-5-5-5-x-5-5-5-5-5--x-x-5-5------5-0------------------------------|
----0-0-0-0-0---0-0-0-0-0--x-x-0-0---------------------------------------|
  |                     |
  |----------verse------| play it several times
chorus_
the chorus is pretty simple but notice half way through the chorus
 he plays it backwards, strum these two chords

-------------------------          ----------------------------|
-------------------------          ----------------------------|
-------------------------          ----------------------------|
---8--5------------------ half way --5---8---------------------|
---8--5------------------          --5---8---------------------|
---8--5------------------          --5---8---------------------|