Day Of Fire - Through The Fire Chords & Tabs

 

Through The Fire Chords & Tabs

Day Of Fire Chords & Tabs

Version: 1 Type: Tab

Through The Fire Tab

Band- Day Of Fire
Song- Through The Fire

Tuning Dropped Db (tune low string to D then drop all strings one half step)
To play with the CD you hafta be in Db, but you could play it in dropped D of
course.

Intro
---------------------------------------------------------------|
---------------------------------------------------------------|
---------------------------------------------------------------|
-4--4-4-4-0-0-00-----------------------------------------------|
-4--4-4-4-0-0-00-----------------------------------------------|
-4--4-4-4-0-0-00-----------------------------------------------|
Repeat 4x, then play this.

Verse Riff
----------------------------------------------------------------|
----------------------------------------------------------------|
----------------------------------------------------------------|
-2-4-4-4-2-4--0-0-----------------------------------------------|
-2-4-4-4-2-4--0-0-----------------------------------------------|
-2-4-4-4-2-4--0-0-----------------------------------------------|
P.M.--------]  Repeat this--------------------------------------| 8x
[ Tab from: http://www.guitartabs.cc/tabs/d/day_of_fire/through_the_fire_tab.html ]
Chorus
---------------------------------------------------------------|
---------------------------------------------------------------|
---------------------------------------------------------------|
-4-4-4-4-2-2-0-0-0-0-0-----------------------------------------|
-4-4-4-4-2-2-0-0-0-0-0-----------------------------------------|
-4-4-4-4-2-2-0-0-0-0-0-----------------------------------------|
Repeat 2x then play the intro riff 4x ending on 555 the last time.
Then the verse riff and chorus..  After the chorus, there's
a break...  There's not much music here, some acoustic strumming or
or whatever..  I just switch to a clean channel and play this.  It
sounds fine.  If you want to strum and pick that sounds good too, I'm
just putting this in for fun...  Just play around with it.

---------------------------------------------------------------|
-------7---------------5-------------3--------------5----------|
----------6--------------4-------------2--------------4--------|
-----4-------4-------2-----2------0------0--------2-----2------|
---4-----------4---2------------0---------------2---------2----|
-4---------------2------------0-------------0-2----------------|

Then Play the solo over this slightly different rythym.
---------------------------------------------------------------|
---------------------------------------------------------------|
---------------------------------------------------------------|
-4-4-4-2-2-0-0-0-2-2-------------------------------------------|
-4-4-4-2-2-0-0-0-2-2---------(play this under the solo)--------|
-4-4-4-2-2-0-0-0-2-2-------------------------------------------|

---------------------------------------------------------------|
------------------------17vvv-17vvvv-17vvv-17vvvvvv------------|
--9s11-11-13-14~~~~~----(play this with a little wah)-----16b--|
--(repeat this 2x)------(I didn't count how many times)--------|
------------------------(just play it until you wanna quit)----|
------------------------(finish with 16b and go to the chorus)-|