Day Howie - Madrigals Chords & Tabs

 

Madrigals Chords & Tabs

Day Howie Chords & Tabs

Version: 1 Type: Tab 0 ratings
1 star 2 stars 3 stars 4 stars 5 stars
comments

Madrigals Tab

   
madgrigal outro
howie day
------------------------------------

part I
   E     B   F#m   A
e--0-----0----0----0---------
b--0-----0----10---0---------
g--1(2)--8----11---6---------
d--2-----9----11---7---------
a--2-----9----9----7---------
E--0----(7)--------5---------
[ Tab from: http://www.guitartabs.cc/tabs/d/day_howie/madrigals_tab.html ]
part II
   E   B  F#m      A
e--7---7---2---4---5---------listen for the rhythm of the walk-up
b--9---7---2---4---5---------from the f#m to A
g--9---8---2---4---6---------
d--9---9---4---6---7---------
a--7---9---4---6---7---------
E--0---7---2---4---5---------

part III
e-------------play 8 times
b--9----------
g-----9-------
d--------9----
a-------------
E-------------

part IV
e--12--11--11/12----rhythm not indicated at all so listen
b-------------------for it
g-------------------
d-------------------
a-------------------
E-------------------
 
Comments