Day Howie - Ghost Chords & Tabs

 

Ghost Chords & Tabs

Day Howie Chords & Tabs

Version: 1 Type: Tab 0 ratings
1 star 2 stars 3 stars 4 stars 5 stars
comments

Ghost Tab

   
song: Ghost
artist: Howie Day
tabbed by: Jon Zegar



thanks to: brendan o'rourke(daivmatthewsband@yahoo.com) for previous version.





a dl-4 is kind of nice in order to be able to do all these parts.

part I w/delay
e--11--12\--or---11--7/---
b-------------------------
g-------------------------
d-------------------------
a-------------------------
E-------------------------

part II w/ebow. this part varries all the time.
e--9--11--12--5---7--5--4--2--0--0--2h4--5--4--2--0---
b-----------------------------------------------------
g-----------------------------------------------------
d-----------------------------------------------------
a-----------------------------------------------------
E-----------------------------------------------------

main Progression            "no i..."
  C#m   A     E             C#m   A  B  C#m   A     E 
e--0----0-----0--0--0--2--|--0----0--0--0-----0-----0---
b--5----0-----0--0--2--0--|--5----0--0--5-----0-----0---
g--6----6-----1--2--1--1--|--6----6--8--6-----6-----1---
d--6----7-----2--2--2--2--|--6----7--9--6-----7-----2---
a--4----7-----2--2--2--2--|--4----7--9--4-----7-----2---
E----4--5--7--0--0--0--0--|----4--5--7-----4--5--7--0---


for the jam just follow the standard C#m A E progression. these are some common themes howie plays before 
going into beams of light, or if he doesn't go into it at all.
[ Tab from: http://www.guitartabs.cc/tabs/d/day_howie/ghost_tab.html ]
Part I i dont indicate the times the note is struck, just listen.
e-12--11--9--7--9--7--5--5/7--7--5--4--2/4--5--4--2--0---
b--------------------------------------------------------
g--------------------------------------------------------
d--------------------------------------------------------
a--------------------------------------------------------
E--------------------------------------------------------


part II bassline with the oc-2...note this is still during plain ol' ghost before double time.
e---------------------------------------------------------------------------
b---------------------------------------------------------------------------
g---------------------------------------------------------------------------
d---------------------------------------------------------------------------
a---------------------------------------------------------------------------
E-9--7/9--7/9--4--5--9--12--9--12--7--0--9--12--9--12--7--0--9--12--9--12---


and if he doesn't go into ghost he'll fool around with some stuff...here's a good scale on the high e to follow
e--0--2--4--5--7--9--11--12--14--16--17--19--21---

ok...now for beams of light

part I
e-12-----14-----12------16------12---
b----12-----12------12------12-------
g------------------------------------
d------------------------------------
a------------------------------------
E------------------------------------

part II with oc-2
e---------------------------------------------------------
b---------------------------------------------------------
g---------------------------------------------------------
d---------------------------------------------------------
a---------------------------------------------------------
E--9--9--9--9--4--5--5--5--5--7--0--0--0--0--12--12--11---
Comments