Dawn - Tulad Ng Dati Chords & Tabs

 

Tulad Ng Dati Chords & Tabs

Dawn Chords & Tabs

Version: 5 Type: Tab 0 ratings
1 star 2 stars 3 stars 4 stars 5 stars
comments

Tulad Ng Dati Tab

   
tabbed by no other than: carl aguilar

simple lang 2.. di gaya nung iba.. mali mali..
hehehe...

intro/verse
e|4---4-----44---4-------44-44-|
B|4-5-4-5-6-44-5-4-5-6-5-44-44-|
G|4---4-----44---4-------44-44-|
D|-----------------------------|
A|-----------------------------|
E|-----------------------------|

pre chorus
kung may bagyo...... sa iyong damdamin(mabilis na strum)
[ Tab from: http://www.guitartabs.cc/tabs/d/dawn/tulad_ng_dati_tab_ver_5.html ]
e|--------------|
B|--------------|
G|7-----5-------|
D|7--7--5--5555-|
A|5--7--3--5555-|
E|---5-----3333-|

chorus (parehas sa pre chorus mas marami lng strum sa chorus dapat din mabilis ang strum)

e|---------------------------|
B|---------------------------|
G|77777---------55555--------|
D|77777--77777--55555--55555-|
A|55555--77777--33333--55555-|
E|-------55555---------33333-|

after the 2nd chorus
use the verse pattern...
then chorus(hanggang matapos) ... kau na bahala sa adlib d ko pa buo e... peace out...
Comments