Dawn - Tulad Ng Dati Chords & Tabs

 

Tulad Ng Dati Chords & Tabs

Dawn Chords & Tabs

Version: 4 Type: Tab 0 ratings
1 star 2 stars 3 stars 4 stars 5 stars
comments

Tulad Ng Dati Tab

Tulad ng Dati - The Dawn
Tabber - Alvin Lopez

here's the intro of tulad ng dati by the dawn. i really like this song.. this is my
first tab to submit.. hope you guyz rate this one.. if you have comments email me at
acolyte_06@yahoo.com please inform me if ever your gonna post this tabs on your website
or sumting.. 

i just watched them at the guitarfestival and they were really cool.. astig pare!
anyways here's the tab hope it's accurate.. (sori if i didn't tab the solo i still
haven't finish it...) 

Intro/Verse
e|---------------------------------------|
a|------------------------4-4-4-4-4-4-4-4|
d|1-2-1-2-----1-2-1-2-----6-6-6-6-6-6-6-6|
g|3-4-3-4-4-4-3-4-3-4-4-4-8-----8-8-----8|
b|4-5-4-5-5-5-4-5-4-5-5-5----------------|
E|--------2-0---------2-0---7-7----7-7---|
[ Tab from: http://www.guitartabs.cc/tabs/d/dawn/tulad_ng_dati_tab_ver_4.html ]
Prechorus/Chorus
start distortion on chorus... listen to the track and you'll get it.
(kayo na bahala sa strumming.. ganun ako kabait eh..)
e|--------|
a|--9-----|
d|9-9-----|
g|9---3-2-|
b|----2-2-|
E|7-7-----|

interlude
(meron dun ung sa track sa album nila parang effects in synthesizer or sumting.. pero
paglive nilaglagyan un ni francis ng adlib.. pero di ko lng alam kung pano.. kung
marerecord ko lng cla ng live magagawa ko siguro..)
e|------------------------------------------|
a|------------------------------------------|
d|------------------------------------------|
g|-----------------------------------9------|
b|--9799---9799-----9799---9799---97--7--97~|
E|97----797----7-97----797-----797-----97---|

i'll post the adlib next time.. i still haven't finish it..

song structure
intro
verse
prechorus
chorus
verse
prechorus
chorus
interlude
prechorus
chorus
intro
Comments