Dawes - Side Effects Chords & Tabs

 

Side Effects Chords & Tabs

Dawes Chords & Tabs

Version: 1 Type: Chords 0 ratings
1 star 2 stars 3 stars 4 stars 5 stars
comments

Side Effects Chords

   
-------------------------------------------------------------------------------
                             SIDE EFFECTS - Dawes
-------------------------------------------------------------------------------

Tabbed by: Macheeoo
E-mail: macheeoo@yahoo.com

Tuning: Standard


Chords to Know!
    F   F/E C  C/G  Cm  G   G/B  G#  C#  E   Am  C7
e|--1---0---0--0----3---3---3----4---4---0---0---0-----------|
B|--1---1---1--1----4---3---0----4---6---0---1---1-----------|
G|--2---2---0--0----5---0---0----5---6---1---2---3-----------|
D|--3---3---2--2----5---0---0----6---6---2---2---2-----------|
A|--3---3---3--3----3---2---2----6---4---2---0---3-----------|
E|--1---1---X--3----X---3---3----4---X---0---X---X-----------|



Intro:          F/E F/E C/G G               F/E F/E G  C/G
e|---0----------0---0---0---3----0----------0---0---3--0-----|
B|------3-1-0---1---1---1---3-------3-1-0---1---1---3--1-----|
G|--------------0h2-0---0---0---------------0h2-0---0--0-----|
D|--------------3---3---2---0---------------3---3---0--2-----|
A|--------------3---3---3---2---------------3---3---2--3-----|
E|--------------1---1---3---3---------------1---1---3--3-----|   x2


[ Tab from: http://www.guitartabs.cc/tabs/d/dawes/side_effects_crd.html ]
G                             C                         
If there was no word for love now
Cm                            G#
We'd see how strong it really is
C#                              G
We could find out what it looks like
C                 F  F/E
Or if it ever did exist

G                                C               
'Cause every time you said you loved me
Cm                              G#
Seems like the point escaped us both
C#                     G
And the current interrupted
C                     F  F/E
The moment that you spoke

E                              Am                                   
Now there's a loophole in the theory
C7                    F/E
That I cannot figure out
F/E                                       C
'Cause if love was what they said it would be
G/B                G        C/G
Then you'd be here with me now


REPEAT INTRO


It's a loneliness perfected
It's how to laugh when you should cry
The side effects of broken promise
Becomes a way of getting by

So the next time that you see me
And our exchange feels somehow cheap
Know that I feel every word you're saying
But from just a few steps out of reach


E                          Am
Where the view is a little hazy
C7                     F/E
And the noise a little loud
F/E                                       C/G
'Cause if love was what they said it would be
G/B                 G            G E Am  D   
Well then you'd be here with me now

F/E                                C/G
If love was what they said it would be
G/B            G            C/G
Then you'd be here with me now


REPEAT INTRO THROUGH OUTRO

END!!!
Comments