David Lee Roth - Yankee Rose Chords & Tabs

 

Yankee Rose Chords & Tabs

David Lee Roth Chords & Tabs

Version: 1 Type: Tab 0 ratings
1 star 2 stars 3 stars 4 stars 5 stars
comments

Yankee Rose Tab

Yankee Rose - Tabbed By John McHugh 

Any comments email me at tokaimaster@hotmail.com

By Steve Vai And David Lee Roth!

Off of The "Eat'em And Smile" Album! 

Hope you have a floyd rose cause your gonna need it!

I tabbed all the bits that i could some the dives i just do randomly and dont aim for a specific note
but thats the beauty of guitar, play it the way you like it :o)!

This is my first tab so im not sure how to put some of it into tab but ill give it a go! 



Main Riff! Steve ends this differently each time so i put the endings in different boxes!
                                                                                    
|-3---------------------------3------------1---1---1-----------------------|
|-3-------------------------------3--------1---1---1----3---3-3-3----------|
|-0--0--------------0-----------------0----2---2---2----5b7-7-7-7r5p3------|
|-0---------------------0--0---------------3---3---3------------------5-3-5|
|-2----------------------------------------3---3---3-----------------------|
|-3-----0--1--2--3-------------------------1---1---1-----------------------|



Ending 1: Steve only picks the harmonic once and uses the bar for the rest!
 
               (wbar)
e-----------------------------|
b-----------------------------|
G---------------[5]b7r5r3b5---|
D-5(dive bar)-----------------|
A-----------------------------|
E-----------------------------|

Ending 2:

e--6--4-----------------------------------------------|
b-------6--4------------------------------------------|
G-------------5--4--5b7r5--5--3-------3---------------|
D--------------------------------5--3------5p3--------|
A----------------------------------------------5p3\1--|
E-----------------------------------------------------|

Ending 3:

                 Here you hold the open note and tap where you would play a
                 natural harmonic at the 24th fret! Sounds awesome
e-----------------------|
b-----------------------|
G-0-(dive bar)-t<24>----|
D-----------------------|
A-----------------------|
E-----------------------|

Ending 4: To be Figured out :-p

------------------------------------------------------------------------------------------

Brige: I'm Sure this is mainly one chord (F) played in two different places to add effect!


e--1--1------------------1--1------------------|
b--1--1--/10--/10---/10--1--1--/10--/10---/10--|
G--2--2--/10--/10---/10--2--2--/10--/10---/10--|
D--3--3--/10--/10---/10--2--2--/10--/10---/10--|
A--3--3--/8---/8----/8---3--3--/8---/8----/8---|
E--1--1------------------1--1------------------|

e--1--1---------------------1--1---------------|
b--1--1--/10--/10---/10-----1--1---------------|
G--2--2--/10--/10---/10-----2--2---------------|
D--3--3--/10--/10---/10-----3--3----3--2--3--4-|
A--3--3--/8---/8----/8------3--3----3--2--3--4-|
E--1--1---------------------1--1----1--0--1--2-|


------------------------------------------------------------------------------------------

Chorus

[ Tab from: http://www.guitartabs.cc/tabs/d/david_lee_roth/yankee_rose_tab.html ]
e--3--3------------------1-----------3--3-----------------------------------|
b--3--3------------------3-----------3--3-----------------------------------|
G--0--0------------------3-----------0--0-----------------------------------|
D--0--0------------------3-----------0--0-----------------------------------|
A--2--2------------------1-----------2--2-------------3b4r3p1--3--1---------|
E--3--3---------0h1p0----------------3--3----------------------------3--1---|
..Bright lights and your city lights. Im talkin bout a yankee rose!


e--3--3----------------1----------3--3--------------------------------------|
b--3--3----------------3----------3--3--------------------------------------|
G--0--0----------------3----------0--0--------------------------------------|
D--0--0----------------3----------0--0--------------------------------------|
A--2--2----------------1----------2--2-----------3b4r3p1--3--1--------1-----|
E--3--3-------0h1p0---------------3--3--------------------------3--1-----3--|
..Bright lights and your city lights. Im talkin bout a yankee rose!

------------------------------------------------------------------------------------------

Some of the stuf Steve plays now has more than 1 guitar! but this is what i play! 


e------------------------------------------|
b------------------------------------------|
G------------------------------------------|
D------------------------------------------|
A-----------------0------------------------|
E-(depress bar)---0--Gradually release bar)|
                                    

e-----------------------------------------|
b-----------6-----------------------------|
G--------5-----5---5/7--5-----------------|
D--------------------------8-7-5---5/8\7--|
A-----------------------------------------|
E-----------------------------------------|
  Ahh shes beautiful alright!


e----------------------------------------------------------------|
b--------13b15---13b15r13--11-10-10h11p10h11p10h11p10------------|
G-----------------------------------------------------12--10--12-|
D----------------------------------------------------------------|
A----------------------------------------------------------------|
E----------------------------------------------------------------|
... whole world


e--------------------------------------------------------|
b-----3-----------5-----------7----------3---------------|
G-----3-----------5-----------7----------3------------2--|
D-----3-----------5-----------7----------3------------3--|
A-----1-----------3-----------5----------1------------3--|
E-----------------------------------------------------1--|
...on time ...the case ...the fone ...to waste ...the beat


e-------------------------------13---------------13-|
b-----------6--6--6--6-6--6-----13-13b15r13b15---13-|
G-----------5--5--5--5-5--5-------------------------|
D---------------------------------------------------|
A---------------------------------------------------|
E---------------------------------------------------|
coming your way!


In here is where the vocal and bass fill in the gap just before the best riffage in the song!


e-------------------------------------------------------
b--6\5--5--5-5\3------10\8\7/8--------------------6\5---|
G--5-5--5--5-5\3-------9\7\5/7--------------------5-5---|
D---------------------------------5p3-------------------|
A--------------------------------------5p3\1------------|
E---------------------------------------------3---------|


I dont know from this point on! Sorry! hope what ive got above is helpful! 

h- hammer-on     []- Surpressed (pinch) harmonics
p- pull-off      <>- Natural Harmonics   
t- tap           \- slide down
b- bend          /- slide up
r- release
Comments