David Gilmour - Smile Chords & Tabs

 

Smile Chords & Tabs

David Gilmour Chords & Tabs

Version: 1 Type: Tab

Smile Tab

   
-----------------------------------------------------------------
SMILE - David Gilmour
-----------------------------------------------------------------
Tabbed by: meyer914
Email: markosmeyer@gmail.com

This is a pretty simple song with just 4 chords.


Intro/Riff (Comprises most of the song):
[ Tab from: http://www.guitartabs.cc/tabs/d/david_gilmour/smile_tab.html ]
     C             Cmaj7               C             Cmaj7 
e|---------0--0----------0---|---------0--0----------0---|
B|---------1--1----------0---|---------1--1----------0---|
G|---------0--0----------0---|---------0--0----------0---|
D|------2-----2-------2------|------2-----2-------2------|
A|---3-------------3---------|---3-------------3---------|
E|---------------------------|---------------------------|

(Would this do...)


Other Part:

     Dm            G                Fmaj7         G
e|---------1--1----------3--3---|---------0--0-------------3--3---|
B|---------3--3----------3--3---|---------1--1----------3--3--3---|
G|------2-----2----------0--0---|------2-----2-------4--------4---|
D|---0-------------------0------|---3-------------5---------------|
A|--------------------2---------|---------------------------------|
E|-----------------3------------|---------------------------------|

(I'll make my getaway...)


There is extensive slide soloing in this song. If you want this effect,
just improvise some slide solos in C on the high e string like this:

e|---3/8---5/7---|---3/5---5/7\3---|

Peace.