David Gilmour - On An Island Chords & Tabs

 

On An Island Chords & Tabs

David Gilmour Chords & Tabs

Version: 1 Type: Tab

On An Island Tab

   
ESSA É A MUSICA TEMA DO NOVO CD DO DAVIG GILMOUR, ON AN ISLAND,BOM PROVEITO

THIS IS THE MUSIC ABOUT NEW DAVID GILMOURīS ALBUM ON AN ISLAND
ENJOY IT!

msn: morgangil23@hotmail.com


ON AN ISLAND

(Gilmour/Gilmour - Samson)

Intro :  Em Em Em Em


Em             Am
Remember that night...
 G        D/F#
White sails in the moonlight
Em             Am
They walked it too...
  G                        D/F#
Through empty playground, this ghost's town
Em             Am            G                   D/F#
Children again on rusting swings getting higher
Em             Am
Sharing a dream
G                  D/F#
On an Island.... it felt right
G       D/F#
We lay side by side,
F                 Em
Between the moon and the tide
C7               Bb7+        A
Mapping the stars for a while


   G             A   Em
Let the night surround you
G       A    Em
We're half way to the stars,
G     A
Ebb and flow
B7    A             G            A       Em
Let it grow..... feel the warmth beside you

Em C/G Em F# Em C/G Em C/G Em C/G Em C/G Em C/G A
G D/F# F Em  C7 Bb7+ A


Em             Am
Remember that night,
  G                        D/F#
The warmth and the laughter
Em             Am
Candles burn...
  G                        D/F#
Though the church was deserted
Em             Am            G                   D/F#
At dawn we went down through empty streets to the harbour
Em             Am            G                   D/F#
Dreamers may leave ...but we're here everafter...
G D/F# F Em  C7 Bb7+ A
Da da da da da....

   G             A   Em
Let the night surround you
G       A    Em
We're half way to the stars,
G     A
Ebb and flow
B7    A             G            A       Em
Let it grow..... feel the warmth beside you


Em Am G D/F#  (ALL THE SOLO , LISTEN THE MUSIC TO TAKE THE TIMING )

SOLO


e------------------------------------------------------|
b-------------------12-12h11h12--12b--12-10------------|
g------------12-14-------------------------------------|
d---12/14----------------------------------------------|
a------------------------------------------------------|
e------------------------------------------------------|


e-------------------------------------------------------------|
b--10b--10-8---7h8h7------------------------------------------|
g--------------------7-----------7-9b-------------------------|
d----------------------7-7---7/9------------------------------|
a-------------------------------------------------------------|
e-------------------------------------------------------------|


e------------12--12h11h12--12h11h12----11b-------------------------------|
b---------12-------------------------------------------------------------|
g---9/12-----------------------------------------------------------------|
d------------------------------------------------------------------------|
a------------------------------------------------------------------------|
e------------------------------------------------------------------------|

e---12b------------------------------------------------------------|
b-------15b--12-11-15-12h11h12-------------------------------------|
g------------------------------------------------------------------|
d------------------------------------------------------------------|
a------------------------------------------------------------------|
e------------------------------------------------------------------|
[ Tab from: http://www.guitartabs.cc/tabs/d/david_gilmour/on_an_island_tab.html ]
e----------12-14-15--14-15------------------------------------|
b--12/15--------------------12-13-----------------------------|
g-------------------------------------------------------------|
d-------------------------------------------------------------|
a-------------------------------------------------------------|
e-------------------------------------------------------------|

e-------12---14-15h14-----14---12-14-15----------------------|
b----13------------------------------------------------------|
g--x---------------------------------------------------------|
d------------------------------------------------------------|
a------------------------------------------------------------|
e------------------------------------------------------------|

e---14h15h14------------------------12/------------------------|
b------------15-----------------15-----------------------------|
g----------------14-14---14h16---------------------------------|
d--------------------------------------------------------------|
a--------------------------------------------------------------|
e--------------------------------------------------------------|

e----7b----------------------------------------------------|
b----8b-----10---11b--8------------------------------------|
g---------9-------------9--7-----------------7-------------|
d-----------------------------7b-5--7ha--7/9---------------|
a----------------------------------------------------------|
e----------------------------------------------------------|

e----------------------------------------------------|
b----------------------------------------------------|
g-----8----------------------------------------------|
d---9------------------------------------------------|
a----------------------------------------------------|
e----------------------------------------------------|

theme


e------------------------------------------------------------------|
b------------------11b-11-8--13---11b-8--10b-7---------------------|
g------------------------------------------------------------------|
d---5h7-5h7-5------------------------------------------------------|
a------------------------------------------------------------------|
e------------------------------------------------------------------|

e---------------------------------------------------------------|
b---------------------------------------------------------------|
g-----------------------------------------7-7-9ha-9ha-----------|
d------------------------------5-7--7-9-------------------------|
a--5--4--5~~b0-----7-------5/7----------------------------------|
e--3--2--3~~b0-----5---5h7--------------------------------------|

e--------------------------------------------------------------------------|
b----------------10-12--12h11h10h12--12h11h12-/----------------------------|
g---9/12-----12------------------------------------------------------------|
d--------------------------------------------------------------------------|
a--------------------------------------------------------------------------|
e--------------------------------------------------------------------------|


e---12h10h12-----13h12h10h12----/---------------------------------------|
b-----------------------------------------------------------------------|
g-----------------------------------------------------------------------|
d-----------------------------------------------------------------------|
a-----------------------------------------------------------------------|
e-----------------------------------------------------------------------|

e---------12-14-15----15h14-----------15-------------------------|
b------13-------------------15--------17ha---17-15---------------|
g----x-------------------------14------------------14------------|
d----------------------------------------------------------------|
a----------------------------------------------------------------|
e----------------------------------------------------------------|

e---------------------------------------------------------|
b--12h10h8------------------------------------------------|
g-----------9~~~~-----------------------------------------|
d---------------------------------------------------------|
a---------------------------------------------------------|
e---------------------------------------------------------|

obs : use delay e escute a musica para entender os tremolos que ele usa

      USE DELAY AND LISTEN TO THE MUSIC TO UNDERSTAND THE TREMOLOS WHAT HE USED


legenda : h - ligar a nota
          / - arraste
          b - bend (levantar meio tom)
          ha - harmonico artificial
          ~~ - tremolo (alavanca)


legend :  h - harm
          / - slide
          b - bend (levantar meio tom), get up a half step
          ha - artificial harmonic
          ~~ - tremolo (alavanca)


this tablature was submit on 09/03/2006

greetings

Morgan