David Crowder Band - How He Loves Chords & Tabs

 

David Crowder Band Chords & Tabs

Version: 1 Type: Tab 0 ratings
1 star 2 stars 3 stars 4 stars 5 stars
comments

How He Loves Tab

   
How He Loves
David Crowder Band

tabbed by: remmeh
email: remmeh@gmail.com

I modified ibassforHim's tab. Thanks. 
(http://www.ultimate-guitar.com/tabs/d/david_crowder_band/how_he_loves_crd.htm)

("Piano" intro)
e---8--7--0-----8--7--0--------|
B---5--5--5-----5--5--5--------|
G---5-----------5--------------|
D------------------------------|
A------------------------------|
E------------------------------|


VERSE 1:

e--8----7----0--------------|
B--5----5----5--------------|
G--5------------------------|
D---------------------------|
A---------------------------|
E---------------------------|

e--x---------------------3--|
B--1---------------------1--|
G--0---------------------0--|
D--2---------------------2--|
A--3---------------------3--|
E--x---------------------x--|
   C
   He is jealous for me,


e--8----7----0-------------------------|
B--5----5----5-------------------------|
G--5-----------------------------------|
D--5-----------------------------------|
A--------------------------------------|
E--------------------------------------|

e--x--------------------------------3--|
B--1--------------------------------1--|
G--2--------------------------------2--|
D--2--------------------------------2--|
A--0--------------------------------0--|
E--x--------------------------------x--|
   Am
   Loves like a hurricane, I am a tree,


e--8----7----0-----------------------------------------------|
B--5----5----5--------------------------------6--------------|
G--5------------------------------------------5--------------|
D------------------------------------------------------------|
A------------------------------------------------------------|
E------------------------------------------------------------|

e--x---------------------------------3--------x-------------3-|
B--1---------------------------------1--------1-------------1-|
G--0---------------------------------0--------2-------------2-|
D--0---------------------------------0--------3-------------3-|
A--2---------------------------------2--------x-------------x-|
E--3---------------------------------3--------x-------------x-|
   G                                          F
   Bending beneath the weight of his wind and mercy.


C
When all of a sudden,
                      Am
I am unaware of these afflictions eclipsed by glory,
      G
And I realize just how beautiful You are,
        F
And how great Your affections are for me.

PRE CHORUS:
    C                   Am
And oh, how He loves us oh
          G
Oh how He loves us,
                F
How He loves us all

(electric solo)
e---8~-7~-0-----8~-7~-0~-------|
B------------8~----------8~----|
G------------------------------|
D------------------------------|
A------------------------------|
E------------------------------|
    C               Am

Verse 1, 2nd time:

(electric solo throughout the rest of the song, basically)
e--8---8--7---7--8---8--10---10-|
B----8------8------8-------8----|
G-------------------------------|
D-------------------------------|
A-------------------------------|
E-------------------------------|
[ Tab from: http://www.guitartabs.cc/tabs/d/david_crowder_band/how_he_loves_tab.html ]
e--x---------------------3------|
B--1---------------------1------|
G--0---------------------0------|
D--2---------------------2------|
A--3---------------------3------|
E--x---------------------x------|
   C
   He is jealous for me,


e--8---8-----7---7-----8---8-----10---10-|
B----8---------8---------8----------8----|
G----------------------------------------|
D----------------------------------------|
A----------------------------------------|
E----------------------------------------|

e--x--------------------------------3----|
B--1--------------------------------1----|
G--2--------------------------------2----|
D--2--------------------------------2----|
A--0--------------------------------0----|
E--x--------------------------------x----|
   Am
   Loves like a hurricane, I am a tree,


e--8---8------7---7------8---8------10---10---8---8------7---7------8---8------10---10--|
B----8----------8----------8-----------8--------8----------8----------8-----------8-----|
G---------------------------------------------------------------------------------------|
D---------------------------------------------------------------------------------------|
A---------------------------------------------------------------------------------------|
E---------------------------------------------------------------------------------------|

e--x---------------------------------3--------x--------------------------------3-------|
B--1---------------------------------1--------1--------------------------------1-------|
G--0---------------------------------0--------2--------------------------------2-------|
D--0---------------------------------0--------3--------------------------------3-------|
A--2---------------------------------2--------x--------------------------------x-------|
E--3---------------------------------3--------x--------------------------------x-------|
   G                                          F
   Bending beneath the weight of his wind and mercy.


C
When all of a sudden,
                      Am
I am unaware of these afflictions eclipsed by glory,
      G
And I realize just how beautiful You are,
        F
And how great Your affections are for me.

(continue acoustic solo)
e---8---8-10---10-|
B-----8------8----|
G-----------------|
D-----------------|
A-----------------|
E-----------------|

Oh how He Loves

CHORUS:
C
He loves us,
          Am
Oh how He loves us,
          G
Oh how He loves us,
          F
Oh how He loves.

VERSE 2:
C
We are His portion and He is our prize,
Am
Drawn to redemption by the grace in His eyes,
G                               F
If grace is an ocean, we’re all sinking.
C
So Heaven meets earth like an unforeseen kiss,
Am
And my heart turns violently inside of my chest,
G
I don’t have time to maintain these regrets,
F
When I think about, the way…

PRE CHORUS:
    C                   Am
And oh, how He loves us oh
          G
Oh how He loves us,
                F
How He loves us all... How He Loves

CHORUS:
         C
Yeah, He loves us,
          Am
Oh how He loves us,
          G
Oh how He loves us,
           F
Oh how He loves.
         C
Yeah, He loves us,
          Am
Oh how He loves us,
          G
Oh how He loves us,
          F           C
Oh how He loves us oh.
Comments