David Crowder Band - Here Is Our King Chords & Tabs

 

Here Is Our King Chords & Tabs

David Crowder Band Chords & Tabs

Version: 1 Type: Tab

Here Is Our King Tab

   
Artist: David Crowder Band
Song: Here Is Our King
Album: A Collision


David Verse:

---------------------------------|
---------------------------------|
------0-----0---------0-----0----|
----0-----0-----0---0-----0------|
--2-----2-----2---3-----3-----3--|
---------------------------------|

==========================================================

David Pre-Chorus:

----------------------------------------|
----------------------------------------|
--------0------0-----------0-----0------|
------4------4------4----0-----0-----0--|
--3^5------5------5----3-----3-----3----|
----------------------------------------|

Jack Pre-Chorus (no capo):

---9----------7------   --7----7----7-------7--|
---0------0-----0----   ----0----0----0-----0--|
--11----9---9--------   ------9----9----9---9--|
---------------------   -----------------------|
---------------------   -----------------------|
---------------------   -----------------------|

=============================================================

David Chorus:

--3---3---3----------------|
--3---3---3----------------|
--0---0---0----------------|
--0---0---0----------------|
--x---2---3----------------|
--3---x---x----------------|

Jack Chorus:

--------2-------------2-------------2-----------0----|
----0-----0---0---4-----4---4---2-----2---2-4-----4--|
--4---4-----4---4---4-----4---4---4-----4-----4------|
-----------------------------------------------------|
-----------------------------------------------------|
-----------------------------------------------------|

--------2-------------2-------------2---2---------7--|
----0-----0---0---4-----4---4---2-----2---2-------0--|
--4---4-----4---4---4-----4---4---4-----4---4-----9--|
-----------------------------------------------------|
-----------------------------------------------------|
-----------------------------------------------------|

Solley Chorus:

(left)

----------------------------------|
----------------------------------|
--0------0------------------------|
--0------0------------------------|
--x------3------------------------|
--3-------------------------------|

(right)

--3----3----3----3----3----3------|
--3----3----3----3----3----3------|
--0----0----0----0----0----0------|
----------------------------------|
----------------------------------|
----------------------------------|

=================================================================

David Bridge:

--3---3---3---3---3---3-----     --3---3---3--|
--3---3---3---3---3---3-----     --3---3---3--|
--0---2---0---2---0---0-----     --0---2---0--|
--2---0---0---2---0---0-----     --2---0---0--|
--2---x---x---0---2---3-----     --2---x---x--|
--0---2---3---x---x---x-----     --0---2---3—-|


Jack Bridge:

--------2-------------2-----------2--4---2--0--------0---------7-----------7------|
----0-----0---0---0-----0---0---0------------------4-------0-----0-----0-----0----|
--1---1-----1---3---3-----3---4--------4------4--4-----4^8---8-----8^9---9-----9--|
----------------------------------------------------------------------------------|
----------------------------------------------------------------------------------|
----------------------------------------------------------------------------------|

Solley Bridge (no capo) pitchshifter & octafuzz:
[ Tab from: http://www.guitartabs.cc/tabs/d/david_crowder_band/here_is_our_king_tab.html ]
--------------------------------------|
--------------------------------------|
--------------------------------------|
--------------------------------------|
-----------4--6--7--11--13--16--14----|
--4--6--7-----------------------------|

------------14-------------------14-------------14--|
------0--------0----0-----0---------0----0------0---|
--13----13-------13---15----15--------15---0----16--|
----------------------------------------------------|
----------------------------------------------------|
----------------------------------------------------|

========================================================================

Jack Out:

--------2-------------2-----------2--4---2--0-----0----   --11----7--|
----0-----0---0---0-----0---0---0---------------4------   ---0----0--|
--1---1-----1---3---3-----3---4--------4------4-----4--   --13----8--|
-------------------------------------------------------   -----------|
-------------------------------------------------------   -----------|
-------------------------------------------------------   -----------|


Solley Out (no capo) pitchshifter & octafuzz:

(left)

--------------------------------------|
--------------3-----------3-----------|
--------------0-----------0---0-------|
--------------0-----------0---0-------|
--------------3-----------3---x-------|
--4---6---7-------4---6-------3-------|

(right)

--3----3----3----3----3----3----------|
--3----3----3----3----3----3----------|
--0----0----0----0----0----0----------|
---- ---------------------------------|
----- --------------------------------|
--------------------------------------|

CAPO 4

          G/B      C           G/B                 C
VERSE 1:  FROM WHEREVER SPRING ARRIVES TO HEAL THE GROUND
          G/B      C              G/B            C
          FROM WHEREVER SEARCHING COMES THE LOOK ITSELF
          G/B        C                  G/B
          A TRACE OF WHAT WE’RE LOOKING FOR
                      C       G/B   C
          SO BE QUIET NOW AND WAIT
          D        C D          C
PRE-CH:   THE OCEAN  IS GROWING
          D           C
          THE TIDE IS COMING IN HERE IT IS
                      G                G/B
CHORUS 1: HERE IS OUR KING HERE IS OUR LOVE
                      C
          HERE IS OUR GOD WHO’S COME
                              G
          TO BRING US BACK TO HIM
                    G/B       C
          HE IS THE ONE HE IS JESUS
          G/B      C               G/B               C
VERSE 2:  AND WHAT WAS SAID TO THE ROSE TO MAKE IT UNFOLD
          G/B         C             G/B 
          WAS SAID TO ME HERE IN MY CHEST
                C             G/B   C
          SO BE QUIET NOW AND REST (2X)
PRE-CH:
CHORUS 2 (2X)
          Em D/F# G Am G/B C
BRIDGE:   MA JEST Y FI NAL LY
          Em D/F# G Am G/B C  D
          MA JEST Y FI NAL LY HERE
CHORUS 3: (2X)
       Em D/F# G C Em D/F# C G
OUTRO: MA JEST Y FI NAL LY   HERE