David Craig - 7 Days Chords & Tabs

 

7 Days Chords & Tabs

David Craig Chords & Tabs

Version: 2 Type: Tab 0 ratings
1 star 2 stars 3 stars 4 stars 5 stars
comments

7 Days Tab

   
#----------------------------------PLEASE NOTE---------------------------------#
#This file is the author's own work and represents their interpretation of the #
#song. You may only use this file for private study, scholarship, or research. #
#------------------------------------------------------------------------------#

Date:18th December 2000
Time: 4.30pm
Subject: 7 days by Craig David
Tabbed by Melvin Ong A.K.A phats

Chords used:
    EADBGe
Em (022000)
Am7(002010)
Bm7(224232)

Basically, the progression goes like this . Em , Am7 , Bm7 throughout the whole
song. While playing the tab , try to hold on to the chord suggested above.
[ Tab from: http://www.guitartabs.cc/tabs/d/david_craig/7_days_tab_ver_2.html ]
  Em                          
e-------0-----2/3-0-2-0--------------
B---------0-------------3-1-0--------
G-----------0------------------------
D-----2------------------------------
A---2--------------------------------
E-0----------------------------------

  Am7
e----------- 0-----------------------
B----------1---1-- 1-----------------
G--------0-------0-------------------
D------2-----------------------------
A-0----------------------------------
E------------------------------------

  Bm7
e------------2-----------------------
B----------3---3---3-----------------
G--------2-------2-------------------
D------4-----------------------------
A-2----------------------------------
E------------------------------------

You need not necessary to stick so close to the tabs i generated . As you get a
rough idea on how it is like ,you'd will realise you could just simply play the
chords out and you can play it with your own style. Certain parts of the song may
probably require abit of strumming. Just play the chords given all over again ! 

This is my first time tabbing so if you have any comments , questions and shit,
mail me at chemistryman@chemist.com .
Comments