David Bowie - Ziggy Stardust Chords & Tabs

 

Ziggy Stardust Chords & Tabs

David Bowie Chords & Tabs

Version: 3 Type: Tab 0 ratings
1 star 2 stars 3 stars 4 stars 5 stars
comments

Ziggy Stardust Tab

   
David Bowie - Ziggy Stardust

I have fixed the problem(tab was upside down) so now it should be back to normal

Standard Tuning: EADGBE

Intro:
    G
E-------3---2-3-2-3-2----|
B------3-----------------|
G-----4------------------|
D----5-------------------|
A---5--------------------|
E--3---------------------|

   C  B  E  G
E--3--2-----3------------|
B--5--4-----3------------|
G--5--4-----4------------|
D--5--4-----5------------|
A--3--2-----5------------|
E--------0--3------------|

Verse:
G                     Em
Ziggy played guitar, jammin' good with Weird and Gilly,
C   B   C   C#    D                       G
The spiders from Mars, he played it left hand
               Em
But made it too far
             C                           D
Became the special man, then we were Ziggy's band
G                   Em                                C
Ziggy really sang, screwed up eyes and screwed down hairdo
 C   B    C    C#     D                          G
Like some cat from Japan, he could lick 'em by smiling
                     Em
He could leave 'em to hang
                   C                  D
Came on so loaded man, well hung and snow white tan
[ Tab from: http://www.guitartabs.cc/tabs/d/david_bowie/ziggy_stardust_tab_ver_3.html ]
A G FEFEFEF G              A G FEFEFEF G
So where were the spiders while the fly tried th break our balls
A G FEFEFEF G
Just a beer light to guide us
      D                           E
So we bitched about his fans and should we crush his sweet hands?

    G
E-------3---2-3-2-3-2----|
B------3-----------------|
G-----4------------------|
D----5-------------------|
A---5--------------------|
E--3---------------------|

   C  B  E  G
E--3--2-----3------------|
B--5--4-----3------------|
G--5--4-----4------------|
D--5--4-----5------------|
A--3--2-----5------------|
E--------0--3------------|

G                    Em                        C
Ziggy played for time, jiving us that we was voodoo
C B C C# D                            G
The kids was just crass. He was the nazz
                Em
With God given ass
                    C                           D
He took it all too far, but boy could he play guitar

A G FEFEFEFE G             A G FEFEFEF G
Making love with his ego, Ziggy sucked up into his mind
A G FEFEFEF G
Like a leper messiah
           D                     E
When the kids had killed the man I had to break up the band

    G
E-------3---2-3-2-3-2----|
B------3-----------------|
G-----4------------------|
D----5-------------------|
A---5--------------------|
E--3---------------------|

   C  B  E  G
E--3--2-----3------------|
B--5--4-----3------------|
G--5--4-----4------------|
D--5--4-----5------------|
A--3--2-----5------------|
E--------0--3------------|

C                G
Ziggy Played Guitar!!!

 Any comments post them here
Comments