David Bowie - Ziggy Stardust Chords & Tabs

 

Ziggy Stardust Chords & Tabs

David Bowie Chords & Tabs

Version: 1 Type: Bass Tab 0 ratings
1 star 2 stars 3 stars 4 stars 5 stars
comments

Ziggy Stardust Bass Tab

Ziggy Stardust, by David Bowie
Tabbed by vincesmyth

Intro riff. 4 repeats, but guitar only first time through

G |-----||-----------------------||
D |---5-||.---------------3-5---.||
A |-----||.--5---3--2--0--------.||
E |-----||-----------------------||


Verse

G |---------4---------3-4-3-4-3-4-4-5-5----5-4-5-6-7---9-7---------|
D |---5---7---7-4------------------------------------------9-7-----|
A |----------------------------------------------------------------|
E |----------------------------------------------------------------|
    Ziggy played....  Jamming....        & the Spiders.... He played it...
[ Tab from: http://www.guitartabs.cc/tabs/d/david_bowie/ziggy_stardust_btab.html ]
G |-------------9---9-----------------5-5-5---5----|
D |--5---4-5-7----9---8-7---7-7-7-7---------5------|
A |------------------------------------------------|
E |------------------------------------------------|
         But made it...    Became...       Then we were.....

Chorus

G |-------------------------------------------|---------7-7-----------9-9----|
D |.-----------------------------------------.|-------7-------------9--------|
A |.-----------------------------------------.|-----5-------------7----------|
E |-5-5-5-5-5---3-3-3-3-3---1-0-1-0-1-0-1-0-3-|------------------------------|
    So where were...       While the flies...    So we bitched... And should...
Comments