David Bowie - Rebel Rebel Chords & Tabs

 

Rebel Rebel Chords & Tabs

David Bowie Chords & Tabs

Version: 5 Type: Tab 0 ratings
1 star 2 stars 3 stars 4 stars 5 stars
comments

Rebel Rebel Tab

   
-----------------------------------------------------------------------------
			     Rebel Rebel - David Bowie
-----------------------------------------------------------------------------
Tabbed by:Binney Stone
Email:sharrison@middlesex.edu

Tuning:EBGDAE

This is almost the entire song. It is correct, but all comments are welcome.

Main Riff

      1 + 2 + 3 + 4 + 1 + 2 + 3 + 4 +        
e|--------0---0---0-------------------|
B|--------5---3---2-0---0---0-2-0-----|
G|------------------1---1---1-1-1-1---|
D|---(0)------------2---2---2-2-2---2-|
A|------------------------------------|
E|------------------------------------|

[ Tab from: http://www.guitartabs.cc/tabs/d/david_bowie/rebel_rebel_tab_ver_5.html ]
      1 + 2 + 3 + 4 + 1 + 2 + 3 + 4 + 1 + 2 + 3 + 4 + 1 + 2 + 3 + 4 +
      A               D               Bm              E
e|----------------------------------------------------0---------------|
B|----2---------------2---------------3---------------0---------------|
G|----2---------------3---------------4---------------1---------------|
D|----2---------------4---------------4---------------2---------------|
A|----0--------------(5)--------------2---------------2---------------|
E|----------------------------------------------------0---------------|




| /  slide up
| \  slide down
| h  hammer-on
| p  pull-off
| ~  vibrato
| +  harmonic
| x  Mute note
===============================================================================
Comments