David Bowie - Life On Mars Chords & Tabs

 

Life On Mars Chords & Tabs

David Bowie Chords & Tabs

Version: 1 Type: Tab 0 ratings
1 star 2 stars 3 stars 4 stars 5 stars
comments

Life On Mars Tab

David Bowie 
Life On Mars
Hunky Dory
Transcribed by: Nicolas Farraro


Solo:
[ Tab from: http://www.guitartabs.cc/tabs/d/david_bowie/life_on_mars_tab.html ]
e:----------------8------------------------7p4--------8-7-8~---8-7-8~---:
B:-------6-8b10-----8b10---8b10r8p6--8~--------6------------------------:
G:---5-7-----------------------------------------7~---------------------:
D:----------------------------------------------------------------------:
A:----------------------------------------------------------------------:
E:----------------------------------------------------------------------:


e:------8-6-------------------------------------------------------------:
B:-----6-----9-6--8-6--8/9--10~-----------------------------------------:
G:----6-----------------------------------------------------------------:
D:---8------------------------------------------------------------------:
A:----------------------------------------------------------------------:
E:----------------------------------------------------------------------:


Comments/Corrections.......nicolasfarraro@yahoo.com
Comments