David Bowie - John Im Only Dancing Chords & Tabs

 

John Im Only Dancing Chords & Tabs

David Bowie Chords & Tabs

Version: 1 Type: Bass Tab 0 ratings
1 star 2 stars 3 stars 4 stars 5 stars
comments

John Im Only Dancing Bass Tab

John, I'm Only Dancing (Bass Tabs)
tabbed by Aladin Sane
Verse

G------------|
D------------|
A------------|
E--3-3-3-3---|

G----------------5-4-2-2-2-2h4h5---|
D----------------------------------|
A------2-3-3-3-3----------------3--|  back to first part of the verse
E--3-5---------------------------3-|

Chorus:
G------------------7-9-10-9-7---------------|
D----------7-9-10-------------10-9-7--------|
A--7-9-10----------------------------10-8-7-|
E-------------------------------------------|

This part you can use the low E string or the E at the seventh fret on the A string. But 
sounds alot more bassy with the low E string.

Here's the same thing just with the E String.

G------------------------------------|
D-------------0-2-3-2-0--------------|
A-------0-2-3-----------3-2-0--------|
E-0-2-3-----------------------3-2-0--|
[ Tab from: http://www.guitartabs.cc/tabs/d/david_bowie/john_im_only_dancing_btab.html ]
G---------------------------------------------------------|
D-------2-2------2-2------2-2--------0h1h2------2-2---2-2-|
A------------------------------0h1h2----------------------|
E--0-0------0-0-------0-0-------------------0-0----0-0----|

G------------------------------------------------------------|
D---------3-3-------------3-3--------------5-5---------------|
A-----3-3-----3-3-----3-3-----3-3-------5-5-----5-5----------|
E-1-1-------------1-1---------------3-3-------------3-3------|

G--------------------------------------------------------------|
D------5-5-------------7-7-------------------------------------|
A--5-5-----5-5-----7-7-----7-7----12-12-12-12-12-12-12-12------|
E--------------5-5---------------------------------------------|

G---------------------------------------------------------------|
D---------------------------------------------------------------|
A--12--11h10h9h8h7h6h5h4h3h2h1-0h1h2h3h4h5h6h7h8h9h10h11h12-----|
E---------------------------------------------------------------|

this tab will mess you up on a lot of the ways it's played. this is only just a simpler 
to play this.

happy playing
Comments