Dave Navarro - Avoiding The Angel Chords & Tabs

 

Avoiding The Angel Chords & Tabs

Dave Navarro Chords & Tabs

Version: 2 Type: Tab 0 ratings
1 star 2 stars 3 stars 4 stars 5 stars
comments

Avoiding The Angel Tab

   
-------------------------------------------------------------------------------
			     Avoiding The Angel- Dave Navarro
-------------------------------------------------------------------------------
Tabbed by: Mark R
Email:

	There don't seem to be many newer, accurate Dave Navarro/Janes
addiction tabs out there.  I'm pretty sure my version of this song is correct.
I know Dave likes to play alot of octave type chords, and this looks and sounds
about right.  Most versions of "Just because" out there are ridiculous as well,
I'll post a version as correct as possible soon...

Tuning:  Standard
[ Tab from: http://www.guitartabs.cc/tabs/d/dave_navarro/avoiding_the_angel_tab_ver_2.html ]
Main:
e|-----------------------------------------------------------|
B|----------------------------------0-0----0-0----------3----|
G|----7------7------7------7-------5-5----5-5----4-----------|
D|---0--0---0--0---0--0---0--0----0------0------0--0---0--0--|
A|--5--5-5-5--5-5----5-5----5-5--3------3------2--2-2-1--1-1-|
E|----------------6------6-----------------------------------|

Pre:
e|-----|--1--|
B|--2--|--1--|
G|--2--|--2--|
D|--2--|--3--|
A|--0--|--3--|
E|-----|-----|

Chorus:
(Not exact, but played in octaves, like this)
e|---------------------------------------------------------------------------|
B|---------------------------------------------------------------------------|
G|--7------------10----------5-----------------------------------------------|
D|---------------------------------------------------------------------------|
A|--5------------8-----------3-----------------------------------------------|
E|---------------------------------------------------------------------------|



| /  slide up
| \  slide down
| h  hammer-on
| p  pull-off
| ~  vibrato
| +  harmonic
| x  Mute note
===============================================================================
Comments