Dave Matthews Band - You Might Die Trying Chords & Tabs

 

You Might Die Trying Chords & Tabs

Dave Matthews Band Chords & Tabs

Version: 3 Type: Tab 0 ratings
1 star 2 stars 3 stars 4 stars 5 stars
comments

You Might Die Trying Tab

   
This is my first tab so any suggestion are welcome. This tab is the main riff used for
both the Verse and Chorus. I've also included chords for the outro.
I hope this might spur someone to complete and perfect this tab.

-------------------------------------------------------------------------------
			     You Might Die Trying - Dave Matthews Band
-------------------------------------------------------------------------------
Tabbed by: Daniel Randa	
Email:DanRanda99@yahoo.com

Tuning: Droppped D with Capo on First Fret (Tabbed so that 1=capo, not 2nd fret)


Intro/verse - slight palm mute and slight variations

e|---------------------------------------------------------------------------|
B|---------------------------------------------------------------------------|
G|---------------------------------------------------------------------------|
D|--------5---5-7----------5---5-7----3---3-x-3---3-x-3----------------------|
A|--8-8-8-1---1(1)---8-8-8-1---1(1)---3---3-x-3---3-x-3----------------------|
D|--1-1-1-1---1(1)---1-1-1-1---1(1)---3---3-x-3---3-x-3----------------------|

Sometimes played as
[ Tab from: http://www.guitartabs.cc/tabs/d/dave_matthews_band/you_might_die_trying_tab_ver_3.html ]
e|---------------------------------------------------------------------------|
B|---------------------------------------------------------------------------|
G|---------------------------------------------------------------------------|
D|--------5---5-7----------5---5-7----3---3-x-3---3-x-3----------------------|
A|--8-8-8------------8-8-8------------3---3-x-3---3-x-3----------------------|
D|------------------------------------3---3-x-3---3-x-3----------------------|

For the Chorus, 
play the same as the intro but more aggressively with variations on palm mutes


The Outro doesn't seem to have a guitar part, but the implied chords are as follows.
Note:: this is in droppped D but WITHOUT A CAPO.

e|---------------------------------------------------------------------------|
B|---3--------------------------------6--------------------------------------|
G|---2--------------------------------5--------------------------------------|
D|---0--------------------------------3--------------------------------------|
A|---0--------------------------------3--------------------------------------|
D|---0--------------------------------3--------------------------------------|


| /  slide up
| \  slide down
| h  hammer-on
| p  pull-off
| ~  vibrato
| +  harmonic
| x  Mute note
===============================================================================
Comments