Dave Matthews Band - You Might Die Trying Chords & Tabs

 

You Might Die Trying Chords & Tabs

Dave Matthews Band Chords & Tabs

Version: 1 Type: Tab 0 ratings
1 star 2 stars 3 stars 4 stars 5 stars
comments

You Might Die Trying Tab

Song: You Might Die Trying
Artist: Dave Matthews Band
Album: Stand Up (2005)

Whats up dave fans...the album just came out yesterday and i noticed there were no tabs
up for it, so i decided to post a couple of the riffs i picked up by ear. I know they
are prolly far from what dave actually plays but i figure if i get something up it will
help others to get the correct tabs up. So hope this helps some of you! P.S.Listen to
the song for the strumming
-Gannon

Im still not sure if this is right...im not the greatest of tabbing by ear but this is
my favorite song of the new album so here goes!

Intro / Verse:
e|---------------------------------------------------|
B|---------------------------------------------------|
G|---------------------------------------------------|
D|-----X----X-----X-----7------X----X----7----3------|
A|-----X----X-----8-----8------X----8----8----3------|
E|----10---10----10----10-----10---10---10----1------|

[ Tab from: http://www.guitartabs.cc/tabs/d/dave_matthews_band/you_might_die_trying_tab.html ]
The chorus is real hard to hear for me but it runs along the same lines as the intro
and verse i think

Jam:
(i dont think this is right at all but it sort of fits also throw in your own variations)
e|----1---------3-----  --------------|
B|----1---------0-----  --------------|
G|----2---------0-----or--------------|
D|----3---------0-----  --3--5--------|
A|----3---------2-----  --3--5--------|
E|----1---------3-----  --1--3--------|

possible fill inbetween 2 jam chords
e|---4/5--5---------|
B|---4/5--5---------|
G|---4/5--5---------|
D|---3/4--4---------|
A|------------------|
E|------------------|

Boyd solo during jam on guitar its not exact but it gives you the basic idea
e|----------------------------------------------------------|
B|------------10-----------------------13-11-10-------------|
G|------10-12----12-10----------10-12-----------12-10-------|
D|---12----------------12----12-----------------------12----|
A|----------------------------------------------------------|
E|----------------------------------------------------------|
Comments