Dave Matthews Band - Where Are You Going Chords & Tabs

 

Where Are You Going Chords & Tabs

Dave Matthews Band Chords & Tabs

Version: 5 Type: Tab 0 ratings
1 star 2 stars 3 stars 4 stars 5 stars
comments

Where Are You Going Tab

   
Where Are You Going
by Dave Matthews Band
Busted Stuff CD

tabbed by Rich Stine
I have seen a bunch of these tabberd on the net, nad they
all look pritty good by me, but i think this one is the best
for Intro, Verses and Chorus. i hope everyone enjoyes it.
Made 10/28/04

Intro
Repeat 3 times
e---------------------------------------------------------|
B-------3--3-3--3-3------3---3-3--3-3------3--3-3--3-3----|
G--0h2-----2-2--2-2--0h2-----2-2--2-2--0h2----2-2--2-2----|
D--------0-0-0--0-0----------0-0--0-0---------0-0--0-0----|
A----------0-0--0-0----------0-0--0-0-------2-2-2--2-2----|
E-------------------------3-------------------------------|
             on last time do B instead of A
[ Tab from: http://www.guitartabs.cc/tabs/d/dave_matthews_band/where_are_you_going_tab_ver_5.html ]
           A
e-----------------------|
B-----3--3-3--3-3-------|
G-0h2----2-2--2-2-------|
D--------2-2--2-2-------|
A------0-0-0--0-0-------|
E-----------------------|
          B
e-----------------------|
B---3----3-3--3-3-------|
G----2---2-2--2-2-------|
D-----0--2-2--2-2-------|
A------0-0-0--0-0-------|
E-----------------------|
verse:

e--------------------------------------------------------|
B-------3--3-3--3-3----3-3--3-3------3-3--3-3------3-3-3-|
G--0h2-----2-2--2-2----2-2--2-2------2-2--2-2------2-2-2-|
D--------0-0-0--0-0-0--0-0--0-0--0---0-0--0-0--0---2-2-2-|
A----------0-0--0-0----0-0--0-0---2--2-2--2-2---0--0-0-0-|
E--------------------3-----------------------------------|

Chorus:

e--------------------------------------------3--------|
B---3----3----3----3----------3----3----3----3--------|
G---2----2----2----0----------2----2----2----0--------|
D-0-0-0--0-0--0-0--0--------0-0-0--0-0--0-0--0--------|
A------3----2----1---------------3----2----1----------|
E-----------------------------------------------------|
Comments