Dave Matthews Band - What You Are Chords & Tabs

 

What You Are Chords & Tabs

Dave Matthews Band Chords & Tabs

Version: 2 Type: Tab 0 ratings
1 star 2 stars 3 stars 4 stars 5 stars
comments

What You Are Tab

Dave Mattews Band
What you are
Everyday, 2001
tabbed by Scott Weber...drummerboy2424@juno.com 


with distortion
E---------------------------------------------------------------------------------
B---------------------------------------------------------------------------------
G---------------------------------------------------------------------------------
D---11-9----------------11-9-----------------11-9-----------------11-9------------
A--9-----12--11-12-----9-----12--11-12-----9------12--11-12-----9------12--11-12--
E-----------------12------------------12-------------------12-------------------12 
[ Tab from: http://www.guitartabs.cc/tabs/d/dave_matthews_band/what_you_are_tab_ver_2.html ]
E--------------------------------------------------------------------
B--------------------------------------------------------------------
G--------------------------------------------------------------------
D--12------11---10---------------11-9----------------11-9------------
A-------------------12--11------9-----12--11-12-----9-----12--11-12--
E----------------------------------------------12------------------12

  

  but i do...	
E----------------------------------
B----------------------------------
G----------------------------------
D-------12------11---10------------
A------------------------12--11----
E----------------------------------

 than i have...
E----------------------------------
B----------------------------------
G----------------------------------
D-------12------11---10------------
A------------------------12--11----
E----------------------------------

             what you've become
E--------------------------------
B---------------------------------
G-----------------------------------
D--7--7-7--9--10--10-10--9--9-9--12-------10--10-10--9
A--7--7-7--9--10--10-10--9--9-9--12-------10--10-10--9
E--5--5-5--7--8---8--8---7--7-7--10-------8---8--8---7


there,...thats most of what u need to play this song...if u 
have any questions email me at drummerboy2424@juno.com

	






		
Comments