Dave Matthews Band - What Would You Say Chords & Tabs

 

What Would You Say Chords & Tabs

Dave Matthews Band Chords & Tabs

Version: 3 Type: Tab 0 ratings
1 star 2 stars 3 stars 4 stars 5 stars
comments

What Would You Say Tab

   
Dave Matthews
 Live at Luther College
 "What would you say" 
 Tim Reynolds solo tab
 Date of release unknown but i know that i had the album for all yall.

 Dave play this chord progression underlying the solo w/tons of ad lib guitar

 EM7 A7 A C7(b9) B7

 Chords:

 EM7 022033
 A7 x02023
 A x0222x
 C7 x32300
 B7 x2120x 

 Dave plays two different jams after the progression

 Jam 1
 ------

 A ------------2 
 E-0-0-0-3p0-0

 Jam 2
 -------
 g 7/9-9-9
 d --------
 A 5/7-7-7
 E --------

 Tim's Solo(nothing short of amazing, but minimal compared
 to some of the others on the album)

 Both play chord progression 4x before solo

 each section is two measures, x detonates end of measure

 X
 e-12-12-15b---12-12-15-14b---12-12-15-14b-----12-12-15-14b--12
 b---------------------------------------------------------------15-14b--12
 g---------------------------------------------------------------------------14-12

 e--12-12-15--14b--14b-14-12----12------X--12-------------12-------------12
 b---------------------------15----15b~-X-----15-12-13-14----15-12-13-14----14
 g--------------------------------------X-------------------------------------

 e-15-12-15b---12-------15b-12---------X-------------------------------------------
 b----------------15-12-15b-12-15-12---X-15-15b------------------------------------
 g-----------------------------14-12---X-14-14b-(12)-------------------------------
 d-------------------------------------X------------14-12--------------------------
 a-------------------------------------X------------------14-12-10h12-10---12-13-14

 e--------------------------------------------X------------------------------14-15
 b--------------12-----12------------------12-X-15-15b-15b--15-15b--15-15-15------
 g--------12-14---14b----14--12-12-------14---X-----------------------------------
 d-12--14--------------------------14-12------X-----------------------------------
 a--------------------------------------------X-----------------------------------

 e-16-0-----------------------12---14-14-15-X-16-(0)----------------------------------
 b------15-0-14--13--12-13-14---------------X-------15-14-13--12-13-14----------------
 g------------------------------------------X--------------------------12~------------
 d------------------------------------------X------------------------------14-12----14
 a------------------------------------------X------------------------------------14
[ Tab from: http://www.guitartabs.cc/tabs/d/dave_matthews_band/what_would_you_say_tab_ver_3.html ]
 e---------------------------------------------X------------11-14-11-15-12------------------------------- 
 b---------------------------------------------X------11-14---------------15-12--------------------------
 g---------------------------------------14-13-X-12-14-------------------------14-12---------------------
 d-12-----------------12-14--12-14-13-12-------X---------------------------------------------------------
 a---14-12-10---13-14------14------------------X------------------------------------0--9-7----14-13-12-13
 E---------------------------------------------X-------------------------------------------7/------------

 e------------------------------------------------------12-15----15-X-15b-15-12--12------------------------------
 b-------------------------------------11-14-12-11-14-15------15b---X----------15--15b--15-14-13--12-13-14-15--12
 g--------------------11-14-12-11-12-14-----------------------------X---------------------------14-----------14--
 d---11-14-12-11-12-14----------------------------------------------X--------------------------------------------
 a-14---------------------------------------------------------------X--------------------------------------------

 e------------------------------------12-----------X------------------
 b-15-15-15-15---15----15-15-15----------15-15--15-X------------------
 g-14-14----14-14---12-14-14-14b--12--12-14-14b-14-X--12--------------
 d----------------------------------14-------------X--14-12-----------
 a-------------------------------------------------X-----(14)12-10-12>

 After A(12), Tim plays the same note w/improv bending and occasional A# and B(13and14) thrown in for
 good measures for 3 measures. listen to cd for accuracy

 Next few sections are only 1 measure because of Timmy's high speed playing

 d------------------------------------------------11-13-14-12------x-11-11
 a-12b--12-12-12-12b--12-12-12-12b--12-12-12-11-13-----------14-12
 E------------------------------------------------------------------------

 e-----------------------------------------------------------------------
 b-----------------------------------------11-13-15-13-11--------11-13---
 g------------11-13-14-12------------11-13---------------13-11-13--------
 d-X-13--11-13-----------14-12-11-13-------------------------------------
 a-----------------------------------------------------------------------
 E-----------------------------------------------------------------------

 e-11--13--15~--12~----------------------------------
 b------------------15--12----12--13-14/15--------15-
 g-------------------------14--------------12-----14-

 e---------15-15-15--15--15--15--X-15
 b-15---15-15-13-14b-14b-14b-14b-X-14b(continued w/improv bend till E7)
 g-14b--14-----------------------X-


 Thats the complete and accurate solo. the bends you will have to decipher 
 yourself. it took enough energy to write all this out in the first place.
 if any of you ever play this solo well, record it and send it to me. Id 
 love to hear it(suburbmag@hotmail.com).

 Rest of the song available upon request.
Comments