Dave Matthews Band - What Would You Say Chords & Tabs

 

What Would You Say Chords & Tabs

Dave Matthews Band Chords & Tabs

Version: 1 Type: Tab 0 ratings
1 star 2 stars 3 stars 4 stars 5 stars
comments

What Would You Say Tab

   
                             Intro&Verse


e-----------------------------x-x-----------------------------
b--------------------3/5------x-x--------2b3r2--0---2---------
g------------0-4-----2/4------x-x---------------------2-------
d-----------------------------x-x-----------------------------
a-----------------------------x-x-----------------------------
e----3/5----------------------x-x-----3-----------------------



                            Live Chorus
[ Tab from: http://www.guitartabs.cc/tabs/d/dave_matthews_band/what_would_you_say_tab.html ]
e-------------------------------------------------------------
b-------------------------------------------------------------
g-------------------------------------------------------------
d-3---5---9----5----3---2----3----5---------------------------
a-3---5---9----5----3---2----3----5---------------------------
e-1---3---7----3----1--------1----3---------------------------



      Studio chorus is just F,G,Am,G,F,Em,F,G, all in closed chords 
except Em.  On both Choruses strum a little more that what i put 
on each chord except F and Em.


                         Bridge

e--------------------------------------------------------------
b--3-----2-----------------------------------------------------
g--------------2--3--4-----------------------------------------
d--2-----2-----2--3--4-----------------------------------------
a--2-----------------------------------------------------------
e--------------------------0-0-3-0--3/12-----------------------



Tabbed By: Brent Behles
a.k.a: "StratStud"
Comments