Dave Matthews Band - Typical Situation Chords & Tabs

 

Typical Situation Chords & Tabs

Dave Matthews Band Chords & Tabs

Version: 3 Type: Tab 0 ratings
1 star 2 stars 3 stars 4 stars 5 stars
comments

Typical Situation Tab

This is the best way to play the intro because it makes it easier for a beginner to switch 
into chords,and it sounds good too. feel free to double pick the 4's and 5's, cause it 
sounds really good if you can
Intro:
e-----------------------------------------------------
B-----------------------------------------------------
G---4---4---4---4---4---4----4---4---4----4---4---4---
D-----5---5-------5---5--------5---5--------5---5-----
A--------------------------3------------3-------------
E-0-----------0---------------------------------------
[ Tab from: http://www.guitartabs.cc/tabs/d/dave_matthews_band/typical_situation_tab_ver_3.html ]
Play this like 3 times as a transition into chorus chords:
e---x---
B---x---       This is an awesome song for a beginner
G---4---       cause its powerful, and easy to play, its
D---5---       one of the first songs i learned besides
A---3---       Crash.
E---x---

Chorus: changes on words above chords
everybody's everybody's   keep   everyone 
e---3------|--3--------|---0----|---------
B---3------|--3--------|---1----|---1-----
G---0------|--0--------|---2----|---0-----
D---0------|--0--------|---2----|---2-----
A---2------|--x--------|--------|---3-----
E---3------|--1--------|--------|---x-----
Comments