Dave Matthews Band - Two Step Chords & Tabs

 

Two Step Chords & Tabs

Dave Matthews Band Chords & Tabs

Version: 3 Type: Tab 0 ratings
1 star 2 stars 3 stars 4 stars 5 stars
comments

Two Step Tab

   
Dave Matthews Band
Two Step
Sean Spicer
driver8@phy.duke.edu

Basic pattern for the intro and between verses:

    Dm

e-------|
B-------|
G---10--|
D-------|
A-------|
E---10--|Verse -

e -------------------------------------------------
B -------------------------------------------------
G -10--/9---2-----7---5---4-----10-----------------
D -------------------------------------------------
A -------------------------------------------------
E -10--/8---1----/6---5---3----/10-----------------

Chorus

Oh Celebrate we will....

e -------------------------------------------------
B -------------------------------------------------
G --2----------------------------------------------
D ------10---5----8--7-----------------------------
A -----(10)-(5)------------------------------------
E --1---/8---3----6--5-----------------------------

Here's another version from Jason Weathers:  
[ Tab from: http://www.guitartabs.cc/tabs/d/dave_matthews_band/two_step_tab_ver_3.html ]
Some people have been saying that Two Step is in Drop D tuning, and if 
you've ever seen Dave in concert you'd see that he never tunes his guitar 
to Drop D for this song.  So here's the tab, and this song kicks ass.  
Intro:  
Dm Am Gm / With Tim playing this: 
E-x-----x----x--/-----------------------------------------------------
B-6-----x----x--/-----------------------------------------------------
G-7-----5----3--/-7-9-10-9-7-9-10-7-9-10-9-7-9-10-7-10-9-7-9-10-9-7-10
D-x-----x----x--/-----------------------------------------------------
A-5-----x----x--/-----------------------------------------------------
E-x-----5----3--/-----------------------------------------------------

cont.(Tim)

E---------------------------------------8-10-------------------------
B------------------------------8----10-----------------------------
G9-7-7-9-10-9-7-9-9-7-5-7-10-9---10--------------------------------
D---------------------------------------------------------------------
A---------------------------------------------------------------------
E---------------------------------------------------------------------

Verse:  
Dm C F A# Am Gm
E-----x----x----x----x------x-----x----------------------------------
B-----6----x----x----x------x-----x----------------------------------
G-----7----9----2----7------5-----3----------------------------------
D-----x----x----x----x------x-----x----------------------------------
A-----5----x----x----x------x-----x----------------------------------
E-----x----8----1----6------5-----3----------------------------------

Chorus:  

F C Gm A# Am
E---x----------x------------x-----------x--------------x-------------
B---x----------x------------x-----------x--------------x-------------
G---2----------9------------3-----------7--------------5-------------
D---x----------x------------x-----------x--------------x-------------
A---x----------x------------x-----------x--------------x-------------
E---1----------8------------3-----------6--------------5-------------

Things we cannot change....  F, A#, Am, Gm

Hope you like. 

====
Comments