Dave Matthews Band - Tripping Billies Chords & Tabs

 

Tripping Billies Chords & Tabs

Dave Matthews Band Chords & Tabs

Version: 3 Type: Tab 0 ratings
1 star 2 stars 3 stars 4 stars 5 stars
comments

Tripping Billies Tab

   
=-=-=-=-=-=-=-=-=-=-=-=-=-=
Dave Matthews Band
Trippin' Billies
Crash
Tabbed by Leandro Koren
leandro_koren@yahoo.com.ar
=-=-=-=-=-=-=-=-=-=-=-=-=-=

Intro:

Dave's Guitar: | D/F# G | D/F# G Bm A D/F# G | D/F# G A Bm |
               | D/F# G | D/F# G Bm A D/F# G | D/F# G A Bm |
[Acoustic]
       

E|-|----------|-------------------|--------------|-----------|-----------------|-----------|-|
B|-|----------|-------------------|--------------|-----------|-----------------|-----------|-|
G|-|---2-4----|----2-4-7-6-2-4----|--2-4-6-7-----|----2-4----|-2-4-7-6-2-4-----|--2-4-6-7--|-|
D|-|---0-0----|----0-0-0-0-0-0----|--0-0-0-0-----|----0-0----|-0-0-0-0-0-0-----|--0-0-0-0--|-|
A|-|----------|-------------------|--------------|-----------|-----------------|-----------|-|
e|-|---2-3----|----2-3-7-5-2-3----|--2-3-5-7-----|----2-3----|-2-3-7-5-2-3-----|--2-3-5-7--|-|

Tim's Guitar:
[Electric]

   |      G   |               G   |          G   |       G   |            G    |
E|-|-------3--|----------------3--|-----------3--|--------3--|--------------3--|-|
B|-|------3---|---------------3---|----------3---|-------3---|-------------3---|-|
G|-|----------|-------------------|--------------|-----------|-----------------|-|
D|-|----------|-------------------|--------------|-----------|-----------------|-|
A|-|----------|-------------------|--------------|-----------|-----------------|-|
e|-|----------|-------------------|--------------|-----------|-----------------|-|

[Figure 1]:

      A B
E|-|-------|-|
B|-|-------|-|
G|-|--6-7--|-|
D|-|--0-0--|-|
A|-|-------|-|
e|-|--5-7--|-|

[Figure 2]:

 |-| D/F# G A Bm |

E|-|-----------|-|
B|-|-----------|-|
G|-|--2-4-6-7--|-|
D|-|--0-0-0-0--|-|
A|-|-----------|-|
e|-|--2-3-5-7--|-|

You got to do it quickly.

Verse:
[ Tab from: http://www.guitartabs.cc/tabs/d/dave_matthews_band/tripping_billies_tab_ver_3.html ]
A        D   
We were above
G                 D            A 
You were standing underneath us
        D       G      [Figure 1]
We were not yet lovers
A            D     
Dragons were smoked
G          D               
Bumblebees were stinging us
A    D           G     [Figure 1]
I was soon to be crazy

Bridge:

     D          A     [Figure 2]
Eat drink and be merry
    D        A     [Figure 2]
For tomorrow we die
     D          A     [Figure 2]
Eat drink and be merry
    D        A     [Figure 2]
For tomorrow we die
Cause of tripping Billies

Boyd Solo: Like Verse

Verse II:

We're wearing nothing
Nothing but our shadows
Shadows falling down on the beach sand
Remembering once, out on the beaches
We wore pineapple grass bracelets

Chorus:

So why would you care
To get out of this place
You and me and all our friends
Such a happy human race
Cause of tripping Billies

Intro

Bridge:

     D          A      [Figure 2]
Eat drink and be merry
    D        A      [Figure 2]
For tomorrow we die
     D          A      [Figure 2]
Eat drink and be merry
    D        A      [Figure 2]
For tomorrow we die
Cause of tripping Billies

Boyd Solo: Like verse.

Verse III:

We are all sitting
Legs crossed around a fire
My yellow flame she dances
Tequila drinking, oh, our minds will wander
To wondrous places

Chorus:

So why would you care
To get out of this place
You and me and all our friends
Such a happy human race

Bridge:

Eat drink and be merry
For tomorrow we'll die
Eat drink and be merry
For tomorrow we'll die
(Check it out, Boyd)

Boyd Solo. Like Bridge

Bridge:

Eat drink and be merry
For tomorrow we'll die
Eat drink and be merry
For tomorrow we'll die
Eat drink and be merry
For tomorrow we'll die
Eat drink and be merry
For tomorrow we'll die

Outro: Intro.

Chords:

      A    D/F#   G     Bm    D
E|-|--0--|--2--|--3--|--2--|--2--|-|
B|-|--2--|--3--|--0--|--3--|--3--|-|
G|-|--2--|--2--|--4--|--4--|--2--|-|
D|-|--2--|--0--|--0--|--4--|--0--|-|
A|-|--0--|-----|--2--|--2--|-----|-|
e|-|-----|--2--|--3--|-----|-----|-|

Or other kind of chords:

      A    D/F#   G     Bm    D
E|-|-----|-----|-----|-----|-----|-|
B|-|-----|-----|-----|-----|-----|-|
G|-|--6--|--2--|--4--|--7--|--2--|-|
D|-|--0--|--0--|--0--|--0--|--0--|-|
A|-|-----|-----|-----|-----|-----|-|
e|-|--5--|--2--|--3--|--7--|-----|-|
Comments