Dave Matthews Band - The Stone Chords & Tabs

 

The Stone Chords & Tabs

Dave Matthews Band Chords & Tabs

Version: 1 Type: Bass Tab 0 ratings
1 star 2 stars 3 stars 4 stars 5 stars
comments

The Stone Bass Tab

Dave Matthews Band
The Stone
Kyle McGuire
DMBand44incubus@hotmail.com


Intro
G|----------------------------|
D|-------7-------5-5-5--------|
A|---5------8------------8---7|
E|----------------------------|

Verse
G|----------------------------|
D|--------7:--5:--------------|
A|---5:-----------------------|
E|----------------------------|
[ Tab from: http://www.guitartabs.cc/tabs/d/dave_matthews_band/the_stone_btab.html ]
G|----------------------------|
D|----------------------------|
A|----------------------------|
E|-/\/\/\ (Slides to nowhere)-|

G|----------------------------|
D|-(Off of 5)--/17-17-17-19:--|
A|----------------------------|
E|----------------------------|

Chorus/Ending
G|----------------------------|
D|----------------------------|
A|--8*--7*--5*--3*------------|
E|----------------------------|

Post Chorus
G|----------------------------|
D|----------------------------|
A|-----7-----5-----8----------|
E|--5-----8-----6-------------|
====
Comments