Dave Matthews Band - Sugar Will Chords & Tabs

 

Sugar Will Chords & Tabs

Dave Matthews Band Chords & Tabs

Version: 4 Type: Tab 0 ratings
1 star 2 stars 3 stars 4 stars 5 stars
comments

Sugar Will Tab

-------------------------------------------------------------------------------
			    Sugar will - dave matthews band
-------------------------------------------------------------------------------
Tabbed by: Tim marinaccio
Email: mastershake1203
[ Tab from: http://www.guitartabs.cc/tabs/d/dave_matthews_band/sugar_will_tab_ver_4.html ]
Tuning: standard
  intro-> verse  fig. 1
e|----------------------------------------------------------------------------|
B|--5---------5----8----6-----------------------------------------------------|
G|--5----5----5----9----7-----------------------------------------------------|
D|--7----7----7----10---8-----------------------------------------------------|
A|-------8--------------------------------------------------------------------|
E|----------------------------------------------------------------------------|
   fig.2 (pre chorus)
e|---------------------------------------------------------------------------|
B|---------------------------------------------------------------------------|
G|--5----3--2-------7----5--4------------------------------------------------|
D|--7----5--4-------9----7--6------------------------------------------------|
A|--8----6--5------10----8--7------------------------------------------------|
E|---------------------------------------------------------------------------|
   fig.3  (Chorus)
e|---------------------------------------------------------------------------|
B|---------------------------------------------------------------------------|
G|--5-------7---4---5-------7---4--------------------------------------------|
D|--7---7---9---6---7---7---9---6--------------------------------------------|
A|--8---9---10--7---8---9---10--7--------------------------------------------|
E|------10--------------10---------------------------------------------------|

play fig.2 and then  e|--------|
                     B|---5----|
                     G|---5----|
                     D|---7----|
                     A|--------|
                     E|--------|

and then go back into the verse (fig.1)

email- mastershake1203@aol.com
Comments