Dave Matthews Band - Sugar Will Chords & Tabs

 

Sugar Will Chords & Tabs

Dave Matthews Band Chords & Tabs

Version: 3 Type: Tab 0 ratings
1 star 2 stars 3 stars 4 stars 5 stars
comments

Sugar Will Tab

Sugar Will Tabs
Tabbed by: Samantha
Not released yet
September 4, 2004

standard tuning (played on a 12-string)
INTRO:
you can repeat the first part as many times as you like, the second part is
the transition into the verse:              
-------------------|-----------
------5-----5------|---5-------
--5-4---4-5---5-4--|-5---5-4-2-
-------------------|-----------
-------------------|-----------
-------------------|-----------

VERSE:
----------------|----------------|----------------|----------------|
----------------|-----5-----5----|-----8-----8----|-----6-----6----|
-2-0-5---2-5-2-0|-5-4---4-5---5-4|-9-7---7-9---9-7|-7-5---5-7---7-5|
-------5--------|----------------|----------------|----------------|
----------------|----------------|----------------|----------------|
----------------|----------------|----------------|----------------|
[ Tab from: http://www.guitartabs.cc/tabs/d/dave_matthews_band/sugar_will_tab_ver_3.html ]
BRIDGE:
-------------|-------------|
-------------|-------------|
-2-0-/5------|-/4-5-7------|
--------4-2-4|--------6-4-6|
-------------|-------------|
-------------|-------------|

CHORUS:
--------------|--------------|--------------|--------------|
--------------|--------------|-----3-----3--|--------------|
-----2-----2--|--------------|-4-2---2-4---2|-----2-----2--|
-3-2---2-3---2|-2-0-5-0-2-5-0|--------------|-3-2---2-3---3|
--------------|--------------|--------------|--------------|
--------------|--------------|--------------|--------------|

FILL:
repeat the intro 3x inbetween the chorus and the verse, and it should fill it in
pretty good.

OUTRO/JAM:
---------------|
-----5-----5---|
-5-4---4-5-----|
---------------|
---------------|
---------------|

that's it...It's fun to play, and this is pretty damn accurate...but if there are
any corrections, drop me a line :-)
-sam
Comments