Dave Matthews Band - Stolen Away On 55th And 3nd Chords & Tabs

 

Stolen Away On 55th And 3nd Chords & Tabs

Dave Matthews Band Chords & Tabs

Version: 1 Type: Tab 0 ratings
1 star 2 stars 3 stars 4 stars 5 stars
comments

Stolen Away On 55th And 3nd Tab

   
My first posting of this song had an error so this one is fixed.

This is my second time writing out a tab by ear (I just did my first 10 minutes ago)
so any and all suggestions or criticisms are welcom.
I do believe that this is the only riff used through out the whole song.
There does seem to be some variation within this structure, but you'll 
just have to listen to the song to really get the feel for that.
I wrote it our with lyrics to help guide you through. 



-------------------------------------------------------------------------------
			    Stolen Away on 55th & 3rd - Dave Matthews Band
-------------------------------------------------------------------------------
Tabbed by: Daniel Randa
Email: DanRanda99@yahoo.com

Tuning: Standard Tuning

Intro
e|---------------------|-------------------|-----------------|---------------|
B|---------------------|-------------------|-----------------|---------------|
G|-----2-/3---------0--|--------------3----|----2-/3------3--|---------------|
D|---------------1-----|-------0-----------|-----------------|---------------|
A|-----------3---------|----1--------------|----------1------|---------------|
E|-1-------------------|3---------1--------|1----------------|---------------|

Verse

e|---------------------|-------------------|-----------------|---------------|
B|---------------------|-------------------|-----------------|---------------|
G|-----2-/3---------0--|--------------3-p2-|----2-/3------3--|---------------|
D|---------------1-----|-------0-----------|-----------------|---------------|
A|-----------3---------|----1--------------|----------1------|---------------|
E|-1-------------------|3---------1--------|1----------------|---------------|

[ Tab from: http://www.guitartabs.cc/tabs/d/dave_matthews_band/stolen_away_on_55th_and_3nd_tab.html ]
                                            "Hello again . . ."
e|---------------------|-------------------|-----------------|---------------|
B|---------------------|-------------------|-----------------|---------------|
G|-----2-/3---------0--|--------------3-p2-|----2-/3------3--|---------------|
D|---------------1-----|-------0-----------|-----------------|---------------|
A|-----------3---------|----1--------------|----------1------|---------------|
E|-1-------------------|3---------1--------|1----------------|---------------|

  "Seems Like Forever Between now and then.  You look the same."
e|---------------------|-------------------|-------------------|---------------|
B|---------------------|-------------------|-------------------|---------------|
G|-----2-/3---------0--|--------------3----|----2-/3---------3-|---------------|
D|---------------1-----|-------0-----------|--------------3----|---------------|
A|-----------3---------|----1--------------|----------1--------|---------------|
E|-1-------------------|3---------1--------|1------------------|---------------|

"I mean you look... but you haven't changed.Funny to think how time gets away"
e|---------------------|-------------------|------------------|-----------------|
B|---------------------|-------------------|------------------|-----------------|
G|-----2-/3---------0--|--------------3----|----2-/3-----3----|-----3-------3-p2|
D|---------------1-----|-------0-----------|----------------3-|-----------------|
A|-----------3---------|----1--------------|----------2-------|-----------------|
E|-1-------------------|3---------1--------|1-----------------|3--------1-------|

 "Funny how you take..right back again. Stolen Away"
e|-------------------|-----------------|-------------------|--------------------|
B|-------------------|-----------------|-------------------|--------------------|
G|----2-/3-----3-----|-----3-------3-p2|-----2-/3--------3-|--------------------|
D|----------------3--|-----------------|-------------------|--------------------|
A|----------2--------|-----------------|-----------1-------|--------------------|
E|1------------------|3--------1-------|1------------------|--------------------|

Repeat through out the song. Notice the Change up in the repetative phrasing
and apply it where needed.


| /  slide up
| \  slide down
| h  hammer-on
| p  pull-off
| ~  vibrato
| +  harmonic
| x  Mute note
===============================================================================
Comments