Dave Matthews Band - Steady As We Go Chords & Tabs

 

Steady As We Go Chords & Tabs

Dave Matthews Band Chords & Tabs

Version: 2 Type: Tab 0 ratings
1 star 2 stars 3 stars 4 stars 5 stars
comments

Steady As We Go Tab

   
-------------------------------------------------------------------------------
			     Steady as we go - Dave Matthews Band
-------------------------------------------------------------------------------
Tabbed by:Espen Rian Skog
Email:Espenskog@gmail.com

Tuning:EADGBE (Standard)

Intro:

e|---------------------------------------------------------------------------|
B|---------------------------------------------------------------------------|
G|--3h5-3----------------3h5-3---------3-------------------------------------|
D|--------3h5-3--4--------------3h5-3--3-------------------------------------|
A|---------------3--4------------------1-------------------------------------|
E|------------------3--------------------------------------------------------|

Verse:
"I'll walk half around the world"
e|---------------------------------------------------------------------------|
B|---------------------------------------------------------------------------|
G|---------3h5-3---------3---------------------------------------------------|
D|--3-------------3h5-3--3---------------------------------------------------|
A|--4--3-----------------1---------------------------------------------------|
E|-----4---------------------------------------------------------------------|
[ Tab from: http://www.guitartabs.cc/tabs/d/dave_matthews_band/steady_as_we_go_tab_ver_2.html ]
Verse pt.2:
"Troubles they may come and go"

e|---------------------------------------------------------------------------|
B|---------------------------------------------------------------------------|
G|----------6--3h5-3--------3------------6---3h5-3---------3-----------------|
D|------3-5-6---------3h5-3-3--------3-5-6----------3h5-3--3-----------------|
A|-5-6------4---------------1---5-6------4-----------------1-----------------|
E|---------------------------------------------------------------------------|

Chorus:
"when the storm comes"

e|---------------------------------------------------------------------------|
B|---------------------------------------------------------------------------|
G|-4-----------------------------4-------------------------------------------|
D|-4--4--------------------------4--4----------------------------------------|
A|-2--4--4----2--1------1--------2--4--4--3----------------------------------|
E|----2--1----------2-4-------------2--1--4----------------------------------|


Another great song from Dmb's new album. Mark Batson on Piano.
Questions/corrections? Mail me...

| /  slide up
| \  slide down
| h  hammer-on
| p  pull-off
| ~  vibrato
| +  harmonic
| x  Mute note
===============================================================================
Comments