Dave Matthews Band - Stay Or Leave Standard Tuning Chords & Tabs

 

Stay Or Leave Standard Tuning Chords & Tabs

Dave Matthews Band Chords & Tabs

Version: 1 Type: Tab 0 ratings
1 star 2 stars 3 stars 4 stars 5 stars
comments

Stay Or Leave Standard Tuning Tab

Stay or Leave
by Dave Matthews
Standard Tuning Tab by Adam Hanley (AHanley@wooster.edu)



I) Intro/Verse

e---------------------------|------------------|
b--3--3---5--3--3--3--2--2--|--3--3---5--3--3--|
g--4--2---6--4--2--2--2--2--|--4--2---6--4--2--|
d--4--0--/7--5--4--0--2--2--|--4--0--/7--5--4--|
a--2---------------------4--|--2---------------|
E---------------------------|------------------|
          *                           *


II) Chorus

e-----3-----5--|
b--8--3-----5--|
g--9--4--7--6--|
d--9--5--7--7--|
a--7-----5-----|
E--------------|


III) Post-chorus ("..but you did")
[ Tab from: http://www.guitartabs.cc/tabs/d/dave_matthews_band/stay_or_leave_standard_tuning_tab.html ]
e--5--5--5--5--5--5--5--5--5--5--5--|
b--5--5--5--5--5--5--5--5--5--5--5--|
g--------------------------6--------|
d--6--5--------6-----------7--6--5--|
a--------5--4--------5--4-----------|
E-----------------7-----------------|



IV) Bridge ("remember we used to dance..")

e--3--3--|-------------|-----3--5--5--|-----3--5--|
b--3--3--|--8-----2--2-|--8--3--5--5--|--8--3--5--|
g--4--4--|--9--7--2--2-|--9--4--6-----|--9--4--6--|
d--5--5--|--9--7--2--2-|--9--5--7--6--|--9--5--7--|
a--------|--7--5--4--4-|--7-----------|--7--------|
E--------|-------------|--------------|-----------|


Order:

I    x4
II   x3
I    x3
II   x3
III  x1
I    x1.5
IV   x1
III  x1 
I    x.5
IV   x1

* end on this chord during the repeats of I) that last 1.5 and .5
Comments