Dave Matthews Band - Stay Chords & Tabs

 

Stay Chords & Tabs

Dave Matthews Band Chords & Tabs

Version: 1 Type: Bass Tab 0 ratings
1 star 2 stars 3 stars 4 stars 5 stars
comments

Stay Bass Tab

  BTAB: Stay 
Artist: Dave Matthews Band 
 Album: Before These Crowded Streets 
Author: Rattman (jratt0@hotmail.com) 
 
 
 
 
This song has a lot of imporvising in it. 
 
 
Verse: 
G------------------------- 
D---4-2-0-1-2-0----------- 
A-1---------------6-4----- 
E---------------4-----6-6- 
 
 
Chorus: 
"hey love..."    "stay stay stay for a while" 
G--------------|------------- 
D--------------|------------- 
A-1~-----------|--/8-8-8-8-8- 
E----1~--------|------------- 
 
 
Interlude (the part with the distorted lead guitar): 
*G---3---3-------------- 
*D-----2---2------------ 
 A-1---------00--------- 
 E--------------44~-4-5- 
  
*=pluck these strings. 
 
  
  
  


[ Tab from: http://www.guitartabs.cc/tabs/d/dave_matthews_band/stay_btab.html ]
Comments