Dave Matthews Band - So Damn Lucky Chords & Tabs

 

So Damn Lucky Chords & Tabs

Dave Matthews Band Chords & Tabs

Version: 1 Type: Tab 0 ratings
1 star 2 stars 3 stars 4 stars 5 stars
comments

So Damn Lucky Tab

 so damn lucky - dave matthews
-------------------------------------------------------------------------------
Tabbed by:brett5
new some devil song!!!
[ Tab from: http://www.guitartabs.cc/tabs/d/dave_matthews_band/so_damn_lucky_tab.html ]
Tuning:eadgbe-standard
	
	intro&verse:(everythings different...) 
e|---------------------------------------------------------------------------|
B|---------------------------------------------------------------------------|
G|-----------------9h-11-------------------------9h-11-----------------------|
D|------9h-11------9h-11---------9h-11-----------9h-11-----------------------|
A|------9h-11--------------------9h-11-------------------------------------  |
E|---------------------------------------------------------------------------|
	chorus:(ohh my god, wait and see, what will soon..)
e|---------------------------------------------------------------------------|
B|-------------------------------------------------3-----1-----2-------------|
G|-------------7-----6----4-----4---2--------------------------2-------------|
D|----2---------------------------------2-----5----4-----2-----2-------------|
A|----2---------------------------------2----------5-----3-------------------|
E|-------------7-----5----3-----3---2---------7------------------------------|
	little part after chorus: (so dizzy from all that spinning)
e|----0----------------------------------------------------------------------|
B|----0----------------------------------------------------------------------|
G|----0----------------------------------------------------------------------|
D|----2----------------------------------------------------------------------|
A|----2----------------------------------------------------------------------|
E|----0----------------------------------------------------------------------|

enjoy dave
Comments