Dave Matthews Band - Satellite Chords & Tabs

 

Satellite Chords & Tabs

Dave Matthews Band Chords & Tabs

Version: 2 Type: Bass Tab 0 ratings
1 star 2 stars 3 stars 4 stars 5 stars
comments

Satellite Bass Tab

   
Satellite-Dave Matthews Band
SATELLITE-Dave Matthews Band

Transcribed from "Remember Two Things" by Graham Fuze

*All notes are held for duration noted except staccato notes
	(with "^" above them), which are followed by a rest until
	the next note.

-For the verse, I have notated the fill that Stefan does where it
	appears in the progression (with the usual notes in "()").
-The second ending for the verse, going into the chorus, is
	underneath where it appears in the progression, within the "<>".

    1 + 2 + 3 +      1 + 2 + 3 +      1 + 2 + 3 +      1 + 2 + 3 + 
|----------------|----------------|----------------|--5-555-3-3-3---|
3|----------------|----------------|----------------|----------------|
4|----------------|--6-------------|----------------|-(6)------------|
|--4-------------|------------4---|--4-------------|-----------(4)--|
Verse/Fill 1

    1 + 2 + 3 +      1 + 2 + 3 +      1 + 2 + 3 +      1 + 2 + 3 + 
|--5-------------|----------------|----------------|----------------|
3|----------------|----------------|----------------|--^-------------|
4|----------------|--6-------------|----------------|--6-------------|
|-(4)------------|------------4---|--4-------------|----------------|
V/F 5                             <--4-4-4-4-4-4---|--4-4-4-4-4-4--->  


-I had trouble hearing bars 10 and 12 of the chorus and would
	appreciate any ideas for more correct notes.
[ Tab from: http://www.guitartabs.cc/tabs/d/dave_matthews_band/satellite_btab_ver_2.html ]
    1 + 2 + 3 +      1 + 2 + 3 +      1 + 2 + 3 +      1 + 2 + 3 + 
|----------------|----------------|----------------|----------------|
3|----------------|------3---------|----------------|--1-111---------|
4|------3-4-6-6 --|--4-----4---3---|--1---1-1-3-4---|--------4-3-----|
|--4-------------|----------------|----------------|------------6---|
Chorus 1
    1 + 2 + 3 +      1 + 2 + 3 +      1 + 2 + 3 +      1 + 2 + 3 + 
|----------------|------6---------|------3---------|----------------|
3|----------------|----6-----6-----|----3-----3-----|--1-111-3-1-----|
4|------6---6-----|--4---------4---|--1---------1---|------------3---|
|--4-------------|----------------|----------------|----------------|
C 5
    1 + 2 + 3 +      1 + 2 + 3 +      1 + 2 + 3 +      1 + 2 + 3 + 
|----------------|----------------|----------------|--------3-------|
3|----------------|------6---3-----|------3---3-----|--1-3-1---------|
4|------6---6-----|--4-----6---6---|--1-------------|----------1-3---|
|--4-------------|----------------|----------------|----------------|
C 9              *C 10*                            *C 12*
    1 + 2 + 3 +      1 + 2 + 3 +      1 + 2 + 3 +      1 + 2 + 3 + 
|----------------|----------------|----------------|----------------|
3|----------------|------6---------|------3---3-----|--1-3-1---------|
4|------6---6-----|--4-------------|--1-------------|--------4-1-3---|
|--4-------------|----------4-----|----------------|----------------|
C 13
   
                     1 + 2 + 3 +      
Fill from verse   |----------------|
progression into 3|--5---------3---|
bridge:          4|------3-4-6-----|
(bar 8 of prog.)  |----6-----------|

    1 + 2 + 3 +      1 + 2 + 3 +      1 + 2 + 3 +      1 + 2 + 3 + 
|----------------|----------------|----------------|----------------|
3|--^-------------|----------------|----5---5---5---|----6---6---6---|
4|--4-----^-------|----------6-6---|--3---3---3-----|--4---4---4-----|
|--------6-------|--4-----4-------|----------------|----------------|
Bridge 1

-Order of song-

32 bar intro, Verse (16 bars), Chorus, Verse progression (8 bars),

[Verse, Chorus, Verse prog., Bridge, Verse prog.] X 2 
Comments