Dave Matthews Band - Rhyme And Reason Chords & Tabs

 

Rhyme And Reason Chords & Tabs

Dave Matthews Band Chords & Tabs

Version: 2 Type: Tab 2 ratings
1 star 2 stars 3 stars 4 stars 5 stars
comments

Rhyme And Reason Tab

 Rhyme and Reason
  by Dave J Matthews

  this is absatutely correct with rhythems and all... more dave songs 
  will be comeing will be coming
  
  Rhy fig 1.  (intro and verse)
   1   &   2   &   3   &   4   &   | 1   &   2   &   3   &   4   &   |
  ---------------------------------|---------------------------------|
  ---------------------------------|---------------------------------|
  ---------3-----------------------|-----------------9\------5-------|
  /5-------------------5-----------|-7~~~~~~~--------------------0---|
  -----5------/6----------/8-------|---------x-----------------------|
  -----------------6-----------8---|---------x---8-------6-----------|




[ Tab from: http://www.guitartabs.cc/tabs/d/dave_matthews_band/rhyme_and_reason_tab_ver_2.html ]
  Rhy fig 2.  (Chorus)
   1   &   2   &   3   &   4   &   | 1   &   2   &   3   &   4   &   |
  ---------------------------------|---------------------------------|
  ---------------------------------|---------------------------------|
  ---------------------------------|---------------------------------|
  ---------------------------------|-5---5-5-5---5-----5-5---5---5---|
  -5---5---5---5-------5---5---5---|-3---3-3-3---3-----3-3---3---3---|
  -3---3---3---3-------3---3---3---|---------------------------------|

   1   &   2   &   3   &   4   &   | 1   &   2   &   3   &   4   &   |
  ---------------------------------|---------------------------------|
  ---------------------------------|---------------------------------|
  ---------------------------------|---------------------------------|
  -3---3-3-3---3---3-3-3---3---3---|-5---5-5-5---5-------5-------5---|
  -1---1-1-1---1---1-1-1---1---1---|---------------------------------|
  ---------------------------------|-5---5-5-5---5-------5-------5---|
Comments