Dave Matthews Band - Rapunzel Chords & Tabs


Rapunzel Chords & Tabs

Dave Matthews Band Chords & Tabs

Version: 1 Type: Tab 0 ratings
1 star 2 stars 3 stars 4 stars 5 stars

Rapunzel Tab

This is the main riff in the "Listener Supported" version of Dave Matthews Band's "Rapunzel."

[ Tab from: http://www.guitartabs.cc/tabs/d/dave_matthews_band/rapunzel_tab.html ]
E   -----------------------------------------------------------
B   -----------------------------------------------------------
G   ---------3-------------------------------------9----------
D   4s5------------------5------------7------------------8-----
A   ------5-----4s5---------5s7-------------7---------7--------
E   ------------------6------------8-----8-----6------------3--

This part is played over and over at the beginning.  The beat is really jumpy, so you'll just have to listen to the CD (or, better yet, do what I did and watch the DVD) to figure it out.  Also:

CHORUSES (the chords, anyway)

E   ---------------
B   ----5---3---2
G   ----5---3---2
D   5---5---3---2
A   5---3---1---0
E   3-------------

Good luck with the song, and email me at graron1022@aol.com with any questions.