Dave Matthews Band - Pig Chords & Tabs

 

Pig Chords & Tabs

Dave Matthews Band Chords & Tabs

Version: 1 Type: Tab 0 ratings
1 star 2 stars 3 stars 4 stars 5 stars
comments

Pig Tab

Tabbed by Morrissey

This song is from the album "Before These Crowded Streets"
The song isn't too hard, once you get the hang of it it's pretty cool.

PIG

"Isn't it strange..."
E------------
B------------
G------------
D--9--11--9--
A-11---0--9--
E--0---9--7--
[ Tab from: http://www.guitartabs.cc/tabs/d/dave_matthews_band/pig_tab.html ]
"This love will..."
E---------------
B---------------
G---------------
D--2---2----4---
A--4---x----4---
E--5---4----2---

"Come sister..." 
E-------------------------
B------------------------- repeat
G-7--6--4-----4--6-----4--
D-5--7--4--4--5--7--4--4--
A-5--7--2--4--5--7--4--2--
E-3--5-----2--3--5--2-----

"Love, what more is there..."
E------------------
B------------------
G--4--4--4--3------
D--2--2--2--4------
A--x--x--x--x------
E--5--4--3--2------


Comments