Dave Matthews Band - One Sweet World Chords & Tabs

 

One Sweet World Chords & Tabs

Dave Matthews Band Chords & Tabs

Version: 2 Type: Tab 1 rating
1 star 2 stars 3 stars 4 stars 5 stars
comments

One Sweet World Tab

Intro - 2 x
-------------------------------------------------------------------|
-4-----------------------------------------------------------------|
-5--------7--------5----------------------5/7------7----5----------|
----------8--------6-----------0-----3/5-----------8----6----------|
-3--------------------------------3--------------------------------|
----------6--------4--------4-------------------6--6----4-------4--|
                                                                              

Going into verse - 
-------------------------------------------------------|
-------------------------------------------------------|
----------------------------5--5--5--5--5--5--5---x-x--|
-----------6---6---6---6----6--6--6--6--6--6--6---x-x--|
-------------------------------------------------------|
-4----4----4---4---4---4----4--4--4--4--4--4--4---x-x--|
                                                                              

Verse
(Daves part)
------------------------------------------|
------------------------------------------|
---------7---------8/10-----10---x-x-x-x--|
-----8-------------8/10-----10---x-x-x-x--|
-6----------------------------------------|
--------------6---------------------------|                                                                       

(Tims part)
------------------------------------------|
------------------------------------------|
-------3----------------------------------|
----5-----------------3-------------------|
-6---------------5----------5----6---6----|
--------------6---------------------------|
                                                                              
[ Tab from: http://www.guitartabs.cc/tabs/d/dave_matthews_band/one_sweet_world_tab_ver_2.html ]
Chorus 
----------------------------------------------------------------------------|
----------------------------------------------------------------------------|
------------5/7--------x--5----------7-------------------5/7----------x--5--|
-----3--5--------------x--6----------8----------3---5-----------------x--6--|
-3------------------------------------------3-------------------------------|
------------------6----x--4----------6-------------------------6------x--4--|

Going back into verse  
-------------------------------------------------------|
-------------------------------------------------------|
----------------------------5--5--5--5--5--5--5---x-x--|
-----------6---6---6---6----6--6--6--6--6--6--6---x-x--|
-------------------------------------------------------|
-4----4----4---4---4---4----4--4--4--4--4--4--4---x-x--|


Bridge I 
-----------------------------------------------------------------------------
---------------------------------------------------------------------------6-
-8-----7------8------10--------12--x--x--x----7-----x---------8---5----------
-----------------------------------------------------------------------------
-----------------------------------------------------------------------/6--6-
-8-----6------8------10--------11--x--x--x----6-----x--/10----8---4----------
                                                                   
        
--------|---------------------------------------------------------------------
-6---x--|---------------------------------8---------6----x--------------------
--------|----------5/7----7------5-----------------------------------5/7---7--
--------|-----3/5---------8------6------------------------------3/5--------8--
-5---x--|--3--------------------------/6--6----5----5----x---3----------------
--------|-----------------6------4-----------------------------------------6--
                                                                              
--------------------------------------------------------|
--------------------------------------------------------|
-5-----------------------------------------------5---x--|
-6-----------------------6---6---6---6---6---6---6---x--|
--------------------------------------------------------|
-4--------4----4----4----4---4---4---4---4---4---4---x--|                                                                              



----------------------------|
-4--------------------------|
-5-----------7-----------5--|
-------------8-----------6--|
-3--------------------------|
-------------6-----------4--|
Comments