Dave Matthews Band - Old Dirt Hill Bring That Beat Back Chords & Tabs

 

Old Dirt Hill Bring That Beat Back Chords & Tabs

Dave Matthews Band Chords & Tabs

Version: 1 Type: Tab 0 ratings
1 star 2 stars 3 stars 4 stars 5 stars
comments

Old Dirt Hill Bring That Beat Back Tab

   
Song: Old Dirt Hill (Bring that beat back)
Artist: Dave Matthews Band
Album: Stand Up (2005)

Whats up dave fans...the album just came out yesterday and i noticed there were no tabs
up for it, so i decided to post a couple of the tunes i picked up by ear. I know they
are prolly far from what dave actually plays but i figure if i get something up it will
help others to get the correct tabs up. So hope this helps some of you! P.S.Listen to
the song for the strumming
-Gannon
[ Tab from: http://www.guitartabs.cc/tabs/d/dave_matthews_band/old_dirt_hill_bring_that_beat_back_tab.html ]
Intro / Verse :
e|---------------------------------------------------|
B|---------------------------------------------------|
G|----0-2---4-0--5-5-5--4----2-4-4-4--2-0--2-2-2--0--|
D|----5-5---5-5--5-5-5--5----5-5-5-5--5-5--5-5-5--5--|
A|---------------------------------------------------|
E|---------------------------------------------------|

Variation :
e|---------------------------------------------------|
B|---------------------------------------------------|
G|----0-2---4-0--5-5-5--4----2-4-4-4--2-0--5/777-5-0-|
D|----5-5---5-5--5-5-5--5----5-5-5-5--5-5--5/777-5-5-|
A|---------------------------------------------------|
E|---------------------------------------------------|

Chorus:
 i havent been able to figure this out yet...if someone else could post it that would
be awesome. 

DMB Forever!


Hope this helps you guys out playing the new album!
Comments