Dave Matthews Band - Oh Chords & Tabs

 

Oh Chords & Tabs

Dave Matthews Band Chords & Tabs

Version: 3 Type: Tab 0 ratings
1 star 2 stars 3 stars 4 stars 5 stars
comments

Oh Tab

   
Song:  Oh
Band:  Dave Matthews
Album: Some Devil
Tabbed by:  Ron Vazquez

Here's an easy version of the song.  Mostly derived 
from Dave's performance in Live@VHI, although Dave
plays without a capo (tighter tuning?).  Anyway, enjoy...

Standard tuning.  Capo 7.

* = quick down strum (sorry, don't know technical term)

   A           Dadd4       G
                     *                       *
|-----------------------|-----------------------|
|--------2--------3--3--|--------0-----------0--|
|--------2--------0--0--0--------0-----0h2p0-0--|
|-----2--------4-----4--|-----2--------------2--0
|--0--------4h5---------|-----------------------|
|-----------------------|--3--------3-----------|


   "The world is blowin' up...."  


Verses:   
   D        Bm             D        A
[ Tab from: http://www.guitartabs.cc/tabs/d/dave_matthews_band/oh_tab_ver_3.html ]
   "I hear you still talk to me..."
   "When it's cold and darkness falls..."

Chorus:
   G                       Em        
   
   "I love you oh so well..."

Ending:

|-----------------------|-----------------------|
|--------3--------3-----|--------3--------3-----|
|--------0--------0-----|--------0--------0-----|
|-----2--------2--------2-----2--------2--------2
|--3--------3--------3--|--2--------2--------2--|
|-----------------------|-----------------------|

|-----------------------|-----------------------|
|--------3--------3-----|--3--------------------|
|--------0--------0-----|--2--------------------|
|-----2--------2--------2--0--------------------|
|--0--------0--------0--|--0--------------------|
|-----------------------|-----------------------|

A:  x02220
Dadd4:  x5403x
G:  320002
D:  x00232
Bm: 224432
Em: 022000
Comments