Dave Matthews Band - Oh Chords & Tabs

 

Oh Chords & Tabs

Dave Matthews Band Chords & Tabs

Version: 2 Type: Tab 0 ratings
1 star 2 stars 3 stars 4 stars 5 stars
comments

Oh Tab

   
dave matthews - oh
mike vitiello
vitpoppa@aol.com
9/30

standard tuning

intro (1x)
e-----------------------------------------------------------------------|
b-----------------------------------------------------------------------|
g--------6----7-------7---7h9p7-----------------------------------------|
d--------7----7---7----7---------9--------------------------------------|
a----7-----/5-------5----------------7----------------------------------|
e-----------------------------------------------------------------------|

on these riffs u can use a regular a instead of the power chord if u wish but
I prefer it this way

verse (5x)
e-----------------------------------------------------------------------|
b-----------------------------------------------------------------------|
g-------6-----7-------7*-----7--7h9p7-----------------------------------|
d-----7-7-----7---7--------7------------9-------------------------------|
a----7-----/5------------5-----------------------7----------------------|
e-----------------------------------------------------------------------|
*harmonic (2nd time on) can be left out...not a big deal
[ Tab from: http://www.guitartabs.cc/tabs/d/dave_matthews_band/oh_tab_ver_2.html ]
chorus
riff a (5x)
e-----------------------------------------------------------------------|
b-----------------------------------------------------------------------|
g----2-2----------2-2--4--4--4------------------------------------------|
d----2-2--4--4-4--2-2--2--2--2------------------------------------------|
a----0-0--4--4-4--0-0--2--2--2------------------------------------------|
e---------2--2-2--------------------------------------------------------|
         emphasize low notes the first time u hit the chord, high notes after
riff b (2x)
e-----------------------------------------------------------------------|
b-----------------------------------------------------------------------|
g-----2---2---2-------4--4---4------------------------------------------|
d-----2---2---2-----2-2--2---2------------------------------------------|
a----(0)--0---0----2--2--2-2-2------------------------------------------|
e-----------------------------------------------------------------------|

riff a (3x)
riff b (2x)

2nd chorus:
riff a (1x)
riff b (2x)

verse/intro riff (2x)
2nd time pluck and finish on A
e-----------------------------------------------------------------------|
b----2------------------------------------------------------------------|
g----2------------------------------------------------------------------|
d----2------------------------------------------------------------------|
a----0------------------------------------------------------------------|
e-----------------------------------------------------------------------|
Comments