Dave Matthews Band - Long Black Veil Chords & Tabs

 

Long Black Veil Chords & Tabs

Dave Matthews Band Chords & Tabs

Version: 2 Type: Tab 0 ratings
1 star 2 stars 3 stars 4 stars 5 stars
comments

Long Black Veil Tab

   
-----------Dave Matthews Band
--album----Listener Supported
--title----"Long Black Veil"

tabbed by valentino garosi (rome)

this is my first tab I hope you enjoy with it
for comments you can write at g.garosi@virgilio.it

Intro 

          C          
e----------------------
B----------------------
G---5--3--3--5---------
D---5--5--5--5---------
A----------------------
E-3--------------------

play this 8 times 

Figure 1

Ten years ago, on a cold, dark night......

          C          
e----------------------
B----------------------
G---5--3--3--5---------
D---5--5--5--5---------
A----------------------
E-3--------------------

Figure 2                                 

Someone was killed beneath the town hall light....

e------------------- ------------------- -----------------
B------------------- ------------------- -----------------
G---5--3--3--5------ -----3----3------1- ------5--3--3--5-
D---5--5--5--5------ -----4----4------2- ------5--5--5--5-
A------------------- --------5---------- -----------------
E-3----------------- --5-----------3---- ----3------------
 


"There were few at the scene......

ripeti Figure 1


Chorus

"She walks these hills.....in a long black veil....

Figure 3
          
-1------- -1------- ----- -------
-1---1--- -1------- -1--- -1-----
-2---0--- -2------- -0--- -0-----
-3---2--- -3------- -2--- -2-----
-3---3--- -3------- -3--- -3-----
-1------- -1------- ----- -------


Figure 4

"Nobody knows, nobody sees......
------ -1------- -1---3--
-1---- -1---1--- -1---0--
-0---- -2---0--- -2---0--
-2---- -3---2--- -3---0--
-3---- -3---3--- -3---2--
------ -1------- -1---3--




Play the figure  : 
[ Tab from: http://www.guitartabs.cc/tabs/d/dave_matthews_band/long_black_veil_tab_ver_2.html ]
Ten years ago, on a cold, dark night 	(fig.1)
Someone was killed beneath the town hall light	(fig.2)
There were few at the scene, but they all agreed   (fig.1)	    	
That the slayer who ran, looked a lot like me    (fig.2) 

She walks these hills in a Long Black Veil   (fig.3)
She visits my grave when the night winds wail (fig.3)
Nobody knows, nobody sees, nobody knows but me (fig.4)

The judge said, "Son, what is your alibi? (fig.1)
If you were somewhere else, Then you won't have to die. (fig.2)
Well, I said not a word, though it meant my life (fig.1)
For I'd been in the arms, of my best friend's wife (fig.2)

She walks these hills in a Long Black Veil   (fig.3)
She visits my grave when the night winds wail (fig.3)
Nobody knows, nobody sees, nobody knows but me (fig.4)

Oh now, the scaffold was high, eternity is near (fig.1)
She stood in the crowd, and shed not a tear (fig.2)

Oh, sometimes at night, when the cold winds blow (fig.1)
In a Long Black Veil she stands over my bones (fig.2) 

She walks these hills in a Long Black Veil   (fig.3)
She visits my grave when the night winds wail (fig.3)
Nobody knows, nobody sees, nobody knows but me (fig.4)

She walks these hills in a Long Black Veil   (fig.3)
She visits my grave when the night winds wail (fig.3)
Nobody knows, nobody sees, nobody knows but me (fig.4) 
Nobody knows, nobody sees, nobody knows but me (fig.4)

Nobody knows but me.... (fig.4)

Nobody knows... 
Nobody knows... 
Nobody knows... but me. 

When dave say "the lovely ladies" the guitar play like this for the rest of the song:

"The lovely ladies."  

e------------------------
B------------------------
G---5--6--5----5--6--5---
D---5--5--5----5--5--5---
A------------------------
E-3----------3-----------
Comments