Dave Matthews Band - Lie In Our Graves Chords & Tabs

 

Lie In Our Graves Chords & Tabs

Dave Matthews Band Chords & Tabs

Version: 4 Type: Tab 0 ratings
1 star 2 stars 3 stars 4 stars 5 stars
comments

Lie In Our Graves Tab

   
=-=-=-=-=-=-=-=-=-=-=-=-=-=
Dave Matthews Band
Lie In Our Graves
Crash
Tabbed by Leandro Koren
leandro_koren@yahoo.com.ar
=-=-=-=-=-=-=-=-=-=-=-=-=-=

Intro & Verses:

      D                             G
E|-|--2-2-2-X-----------------------3-3-3--|-|
B|-|--3-3-3-X-----------------------3-3-3--|-|
G|-|--2-2-2-X-------X--------2------0-0-0--|-|
D|-|--0-0-0-X-------X--0-2-4---4----0-0-0--|-|
A|-|--0-0-0-X--4-2--X---------------2-2-2--|-|
e|-|----------------X------------3--3-3-3--|-|

In the red rocks version,
Dave plays a C before he starts to sing:

      D             C
E|-|--2-2-2-X-------0-0-0-0--|-|
B|-|--3-3-3-X-------1-1-1-1--|-|
G|-|--2-2-2-X-------0-0-0-0--|-|
D|-|--0-0-0-X-------2-2-2-2--|-|
A|-|--0-0-0-X--4-2--3-3-3-3--|-|
e|-|-------------------------|-|

Tim's Part in the intro:   

  D[Triad] C    D
E|-|------------------|-|  
B|-|--3----5----7--7--|-|
G|-|------------------|-|
D|-|--4----5----7--7--|-|
A|-|------------------|-|
E|-|------------------|-|

Verse:

When I step into the light
My arms are open wide
When I step into the light
My eyes searching wildly
Would you not like to be
Sitting on top of the world with you legs hanging free
Would you not like to be ok, ok, ok?
When I'm walking by the water
Splish splash me and you taking a bath
When I'm walking by the water
Come up through my toes
To my ankles
To my head
To my soul
I'm blown away

      D                Am
E|-|--2-2--------------0-0------------------|-|
B|-|--3-3--------------1-1------------------|-|
G|-|--2-2-------2------2-2--0h2p0-0---------|-|
D|-|--0-0-----4---4-0--2-2-----------4-2-4--|-|
A|-|--0-0---0----------0-0------------------|-|
e|-|----------------------------------------|-|

Little Jam:
[ Tab from: http://www.guitartabs.cc/tabs/d/dave_matthews_band/lie_in_our_graves_tab_ver_4.html ]
      C  D  C  D  Am  Bm   C Bm  C  D  C  D   Am Bm C  Bm
E|-|-----2-----2--------------------2-----2---------------|-|
B|-|--1--3--1--3---1---3---1--3--1--3--1--3---1--3--1--3--|-|
G|-|--0--2--0--2---2---4---0--4--0--2--0--2---2--4--0--4--|-|
D|-|--2--0--2--0---2---4---2--4--2--0--2--0---2--4--2--4--|-|
A|-|--3-----3------0---2---3--2--3-----3------0--2--3--2--|-|
e|-|------------------------------------------------------|-|

Verse:

When I'm walking by the water
Splish splash me and you taking a bath
When I'm walking by the water
Come up through my toes
To my ankles
To my head
Down my soul
I'm blown away

Sax Solo:

      D C#m Bm G    A      Em Bm  A D/F# G
E|-|-------------------|-|------------------|-|
B|-|--7--5--3----------|-|--8--3------------|-|
G|-|--7--6--4--4-4--6--|-|--9--4--6--2---4--|-|
D|-|--7--6--4--0-0--2--|-|--9--3--2--0---0--|-|
A|-|--5--4--2--2-2--4--|-|--7--2--4--0---2--|-|
e|-|-----------3-3--5--|-|--------5--2---3--|-|

Or 
     D  D/C# D/B
E|-|--2--2--2----------|-|------------------|-|
B|-|--3--3--3----------|-|--8--3------------|-|
G|-|--2--2--2--4-4--6--|-|--9--4--6--2---4--|-|
D|-|--0--0--0--0-0--0--|-|--9--3--2--0---0--|-|
A|-|-----4--2--2-2--4--|-|--7--2--4--0---2--|-|
e|-|-----------3-3--5--|-|--------5--2---3--|-|

Verse:

I can't believe that we would lie in our graves
Wondering if we had spent out living days well
I can't believe that we would lie in our graves
Dreaming of things that we might have been

Would you not like to be
I can't believe that you would not like to be
Ok, ok, ok
Ok, ok, ok

End: E A
Comments